» » »

Red Hot Chili Peppers - The Getaway Tabs

Artists:  A B C D E F G H I J K L M N O P Q R S T U V W X Y Z # 

The Getaway Tabs

(ver. 1) Click to play this song!
Red Hot Chili Peppers
 Rating:
4.4/5 (8 votes)

 The Getaway  lessons Tabs too difficult? Try these video lessons and learn fast
 
                [Intro]

e|-------------------------|
B|-------------------------|
G|-------------------------|
D|7p5-5-5-7p5-5-5-5-5-7-7p5|
A|-------------------------|
E|-------------------------|
P.M************************

e|---------------------|
B|---------------------|
G|---------------------|
D|5-5-7p5-5-5-5-5-7-7-5| x7
A|---------------------|
E|---------------------|
P.M********************

[Verse]

e|---------------------|
B|---------------------|
G|---------------------|
D|5-5-7p5-5-5-5-5-7-7-5|  x8
A|---------------------|
E|---------------------|
P.M********************

e|-----------------------------------------------|
B|-----------------------------------------------|
G|-----------------------------------------------|
D|19-19-17-19-19-19-17-19-19-17-17-19-19-19-17-19| x4
A|-----------------------------------------------|
E|-----------------------------------------------|
P.M**********************************************


[Chorus]

Rhythm:
e|-----------------------------------------------|
B|-----------------------------------------------|
G|-----------------------------------------------|
D|19-19-17-19-19-19-17-19-19-17-17-19-19-19-17-19| x4
A|-----------------------------------------------|
E|-----------------------------------------------|
P.M**********************************************

Lead:
e|13~~-15\12~~~13p12--------------------|
B|------------------13h15p13h15-13-15~~~|
G|--------------------------------------|
D|--------------------------------------|
A|--------------------------------------|
E|--------------------------------------|

e|---13~~~15-12~~~13\8h10-8h10-8/13|
B|13-------------------------------|
G|---------------------------------|
D|---------------------------------|
A|---------------------------------|
E|---------------------------------|


[Outro]

e|-------------------|
B|-------------------|
G|3~~~5-7--7-5-7-7~~~|
D|3~~~5-7--7-5-7-7~~~|
A|1~~~3-5--5-3-5-5~~~|
E|-------------------|

e|-------------------------|
B|10-8----------10-8-------|
G|-----10-9-7-7------10-9-7|
D|-------------------------|
A|-------------------------|
E|-------------------------|            
Submit corrections


        The Getaway  lessons Hard to play? Try these video lessons and learn fast The Getaway  lessons
        
↑ Back to top | Tablatures and chords for acoustic guitar and electric guitar, ukulele, drums are parodies/interpretations of the original songs. You may use it for private study, scholarship, research or language learning purposes only