» » »

Red Hot Chili Peppers - Cabron Tabs

Artists:  A B C D E F G H I J K L M N O P Q R S T U V W X Y Z # 

Cabron Tabs

(ver. 1) Click to play this song!
Red Hot Chili Peppers
 Rating:
4/5 (4 votes)
    Cabron lessons Tabs too difficult? Try these video lessons and learn fast
                Intro:-
E|--10--|--7--|--10--|--7--|
B|--10--|--7--|--10--|--7--|
G|--11--|--7--|--11--|--7--|
D|--12--|--9--|--12--|--9--|
A|------|-----|------|-----|
E|------|-----|------|-----|

E|-----7---------7----7------7----------7----|--5--|
B|-------------------------------------------|--5--|
G|-------7----7----7------------7----7-----7-|--6--|
D|--5------5--------------5-------5----------|--7--|
A|-------------------------------------------|-----|
E|-------------------------------------------|-----|

OR

E|-------------------------------------------------|------|
B|-----12-----------12----12----12----------12-----|--10--|
G|-------------------------------------------------|---9--|
D|--------12-----12----12----------12----12----12--|--11--|
A|--10--------10-------------10-------10-----------|--12--|
E|-------------------------------------------------|------|


Verses:-
E|-----------------10--10---10---10-10--|
B|-----------------10--10---10---10-10--|
G|--11-9-----------11--11---11---11-11--|
D|-------12-11-12--12--12---12---12-12--|
A|--------------------------------------|
E|--------------------------------------|

E|-------------7--7--7---7-7--|
B|-------------7--7--7---7-7--|
G|--9-7-6------7--7--7---7-7--|
D|--------7-0--9--9--9---9-9--|
A|----------------------------|
E|----------------------------|

Chorus:-
E|---3--3-3---3---3-3--|---5--5-5---5---5-5--|
B|---3--3-3---3---3-3--|---5--5-5---5---5-5--|
G|---4--4-4---4---4-4--|---6--6-6---6---6-6--|
D|---5--5-5---5---5-5--|---7--7-7---7---7-7--|
A|---------------------|---------------------|
E|---------------------|---------------------|
  "I'm small but strong..."

E|---10--10-10---10--10-10-10--|---7--7-7---7--7-7-7--|
B|---10--10-10---10--10-10-10--|---7--7-7---7--7-7-7--|
G|---11--11-11---11--11-11-11--|---7--7-7---7--7-7-7--|
D|---12--12-12---12--12-12-12--|---9--9-9---9--9-9-9--|
A|-----------------------------|----------------------|
E|-----------------------------|----------------------|
  "If you want me to, what else can I do?..."

Slide:-
E|--7/14---9\7--|                      |--7\3--|
B|--------------|                      |-------|
G|--------------| after 4th time       |-------|
D|--------------| play this once ----->|-------|
A|--------------|                      |-------|
E|--------------|                      |-------|

Order of play:-
Intro x1
Verse x6 (then play 1st bar of the verse once and go straight into chorus)
Chorus x8
Verse x6 (then play 1st bar of the verse once and go straight into chorus again)
Chorus x8 
Slide x4 (verse played 4 times under the sliding)
Verse x2
Slide x4 (Verse played 4 times under the sliding)
            
Submit corrections

↑ Back to top | Tablatures and chords for acoustic guitar and electric guitar, ukulele, drums are parodies/interpretations of the original songs. You may use it for private study, scholarship, research or language learning purposes only