» » »

Red Hot Chili Peppers - By The Way Tabs

Artists:  A B C D E F G H I J K L M N O P Q R S T U V W X Y Z # 

By The Way Tabs

(ver. 12) Click to play this song!
Red Hot Chili Peppers
 Rating:
4.3/5 (28 votes)

 By The Way lessons Tabs too difficult? Try these video lessons and learn fast
 
                [Intro]
E||-------------------------|-------------------------|------------------------|------------------------|
B||-------------------------|-------------------------|------------------------|------------------------|
G||-------------------------|-------------------------|------------------------|------------------------|
D||-10-10-10-10-10-10-10-10-|-10-10-10-10-10-10-10-10-|------------------------|------------------------|
A||-------------------------|-------------------------|-7--7--7--7--7--7--7--7-|-7--7--7--7--7--7--7--7-|
E||-------------------------|-------------------------|------------------------|------------------------|
     .  .  .  .  .  .  .  .    .  .  .  .  .  .  .  .   .  .  .  .  .  .  .  .   .  .  .  .  .  .  .  .
E||------------------------|------------------------|------------------------|------------------------|
B||------------------------|------------------------|------------------------|------------------------|
G||------------------------|------------------------|------------------------|-------------9--9--7--7-|
D||------------------------|------------------------|------------------------|------------------------|
A||-8--8--8--8--8--8--8--8-|------------------------|-7--7--7--7--7--7--7--7-|-7--7--7--7-------------|
E||------------------------|-8--8--8--8--8--8--8--8-|------------------------|------------------------|
    .  .  .  .  .  .  .  .   .  .  .  .  .  .  .  .   .  .  .  .  .  .  .  .   .  .  .  . 
E||-------------------------|-------------------------|------------------------|------------------------|
B||-------------------------|-------------------------|------------------------|------------------------|
G||-------------------------|-------------------------|------------------------|------------------------|
D||-10-10-10-10-10-10-10-10-|-------------------------|----------------7--7--7-|-7--7--7--7--7--7--5--5-|
A||-------------------------|-10-10-10-10-10-10-10-10-|-7--7--7--7--7--7--7--7-|-7--7--7--7--7--7--5--5-|
E||-------------------------|-------------------------|------------------------|------------------------|
     .  .  .  .  .  .  .  .    .  .  .  .  .  .  .  .   .  .  .  .  .  .  .  .   .  .  .  .  .  .  .  .

E||------------------------|------------------------|-------------------------|-------------------------|
B||------------------------|-5--5--5--5--5--5--5--5-|-10-10-10-10-10-10-10-10-|-10-10-10-10-10-10-10-10-|
G||------------------------|-5--5--5--5--5--5--5--5-|--9--9--9--9--9--9--9--9-|--9--9--9--9--9--9--9--9-|
D||-3--3--3--3--3--3--3--3-|------------------------|-------------------------|-------------------------|
A||-3--3--3--3--3--3--3--3-|------------------------|-------------------------|-------------------------|
E||------------------------|------------------------|-------------------------|-------------------------|
    .  .  .  .  .  .  .  .    .  .  .  .  .  .  .  .  

[PRE-VERSE]
E|-x-x-x-x-x-x-x-x-x-x-x-x-x-x-x-x-|-x-x-x-x-x-x-x-x-x-x-x-x-x-x-x-x-|-x-x-x-x-x-x-x-x-x-x-x-x-x-x-x-x-|
B|-x-x-x-x-x-x-x-x-x-x-x-x-x-x-x-x-|-x-x-x-x-x-x-x-x-x-x-x-x-x-x-x-x-|-x-x-x-x-x-x-x-x-x-x-x-x-x-x-x-x-|
G|-x-x-x-x-x-x-x-x-x-x-x-x-x-x-x-x-|-x-x-x-x-x-x-x-x-x-x-x-x-x-x-x-x-|-x-x-x-x-x-x-x-x-x-x-x-x-x-x-x-x-|
D|-x-x-x-x-x-x-x-x-x-x-x-x-x-x-x-x-|-x-x-x-x-x-x-x-x-x-x-x-x-x-x-x-x-|-x-x-x-x-x-x-x-x-x-x-x-x-x-x-x-x-|
A|-x-x-x-x-x-x-x-x-x-x-x-x-x-x-x-x-|-x-x-x-x-x-x-x-x-x-x-x-x-x-x-x-x-|-x-x-x-x-x-x-x-x-x-x-x-x-x-x-x-x-|
E|-x-x-x-x-x-x-x-x-x-x-x-x-x-x-x-x-|-x-x-x-x-x-x-x-x-x-x-x-x-x-x-x-x-|-x-x-x-x-x-x-x-x-x-x-x-x-x-x-x-x-|

E|-x-x-x-x-x-x-x-x-x-x-x-x-x-x-x-x-|-x-x-x-x-x-x-x-x-x-x-x-x-x-x-x-x-|-x-x-x-x-x-x-x-x-x-x-x-x-x-x-x-x-|
B|-x-x-x-x-x-x-x-x-x-x-x-x-x-x-x-x-|-x-x-x-x-x-x-x-x-x-x-x-x-x-x-x-x-|-x-x-x-x-x-x-x-x-x-x-x-x-x-x-x-x-|
G|-x-x-x-x-x-x-x-x-x-x-x-x-x-x-x-x-|-x-x-x-x-x-x-x-x-x-x-x-x-x-x-x-x-|-x-x-x-x-x-x-x-x-x-x-x-x-x-x-x-x-|
D|-x-x-x-x-x-x-x-x-x-x-x-x-x-x-x-x-|-x-x-x-x-x-x-x-x-x-x-x-x-x-x-x-x-|-x-x-x-x-x-x-x-x-x-x-x-x-x-x-x-x-|
A|-x-x-x-x-x-x-x-x-x-x-x-x-x-x-x-x-|-x-x-x-x-x-x-x-x-x-x-x-x-x-x-x-x-|-x-x-x-x-x-x-x-x-x-x-x-x-x-x-x-x-|
E|-x-x-x-x-x-x-x-x-x-x-x-x-x-x-x-x-|-x-x-x-x-x-x-x-x-x-x-x-x-x-x-x-x-|-x-x-x-x-x-x-x-x-x-x-x-x-x-x-x-x-|

E|-x-x-x-x-x-x-x-x-x-x-x-x-x-x-x-x-|-x-x-x-x-x-x-x----x----x----x----x-x-|
B|-x-x-x-x-x-x-x-x-x-x-x-x-x-x-x-x-|-x-x-x-x-x-x-x-13-x-13-x-13-x-13-x-x-|
G|-x-x-x-x-x-x-x-x-x-x-x-x-x-x-x-x-|-x-x-x-x-x-x-x----x----x----x----x-x-|
D|-x-x-x-x-x-x-x-x-x-x-x-x-x-x-x-x-|-x-x-x-x-x-x-x----x----x----x----x-x-|
E|-x-x-x-x-x-x-x-x-x-x-x-x-x-x-x-x-|-x-x-x-x-x-x-x----x----x----x----x-x-|
E|-x-x-x-x-x-x-x-x-x-x-x-x-x-x-x-x-|-x-x-x-x-x-x-x----x----x----x----x-x-|

[Verse]
E|-10-10-x-x-x-x-x-x-x-x-x-x-x-x-|-10-10-x-x-x-x-x-x-x-x-x-x-x-x-|-10-10-x-x-x-x-x-x-x-x-x-x-x-x-|
B|-10-10-x-x-x-x-x-x-x-x-x-x-x-x-|-10-10-x-x-x-x-x-x-x-x-x-x-x-x-|-10-10-x-x-x-x-x-x-x-x-x-x-x-x-|
G|-10-10-x-x-x-x-x-x-x-x-x-x-x-x-|-10-10-x-x-x-x-x-x-x-x-x-x-x-x-|-10-10-x-x-x-x-x-x-x-x-x-x-x-x-|
D|-12-12-x-x-x-x-x-x-x-x-x-x-x-x-|-12-12-x-x-x-x-x-x-x-x-x-x-x-x-|-12-12-x-x-x-x-x-x-x-x-x-x-x-x-|
A|-------x-x-x-x-x-x-x-x-x-x-x-x-|-------x-x-x-x-x-x-x-x-x-x-x-x-|-------x-x-x-x-x-x-x-x-x-x-x-x-|
E|-------x-x-x-x-x-x-x-x-x-x-x-x-|-------x-x-x-x-x-x-x-x-x-x-x-x-|-------x-x-x-x-x-x-x-x-x-x-x-x-|

E|-10-10-x-x-x-x----x----x----x----x-x-|-10-10-x-x-x-x-x-x-x-x-x-x-x-x-|-10-10-x-x-x-x-x-x-x-x-x-x-x-x-|
B|-10-10-x-x-x-x-13-x-13-x-13-x-13-x-x-|-10-10-x-x-x-x-x-x-x-x-x-x-x-x-|-10-10-x-x-x-x-x-x-x-x-x-x-x-x-|
G|-10-10-x-x-x-x----x----x----x----x-x-|-10-10-x-x-x-x-x-x-x-x-x-x-x-x-|-10-10-x-x-x-x-x-x-x-x-x-x-x-x-|
D|-12-12-x-x-x-x----x----x----x----x-x-|-12-12-x-x-x-x-x-x-x-x-x-x-x-x-|-12-12-x-x-x-x-x-x-x-x-x-x-x-x-|
A|-------x-x-x-x----x----x----x----x-x-|-------x-x-x-x-x-x-x-x-x-x-x-x-|-------x-x-x-x-x-x-x-x-x-x-x-x-|
E|-------x-x-x-x----x----x----x----x-x-|-------x-x-x-x-x-x-x-x-x-x-x-x-|-------x-x-x-x-x-x-x-x-x-x-x-x-|

E|-10-10-x-x-x-x-x-x-x-x-x-x-x-x-|-10-10-10-10-10-10-10-10-10-10-10-10-10-10-|
B|-10-10-x-x-x-x-x-x-x-x-x-x-x-x-|-10-10-10-10-10-10-10-10-10-10-10-10-10-10-|
G|-10-10-x-x-x-x-x-x-x-x-x-x-x-x-|-10-10-10-10-10-10-10-10-10-10-10-10-10-10-|
D|-12-12-x-x-x-x-x-x-x-x-x-x-x-x-|-12-12-12-12-12-12-12-12-12-12-12-12-12-12-|
A|-------x-x-x-x-x-x-x-x-x-x-x-x-|-------------------------------------------|
E|-------x-x-x-x-x-x-x-x-x-x-x-x-|-------------------------------------------|

[Chorus]
   F                 C                 Dm
E|-1-1-1-1-1-1-1-1-|-0-0-0-0-0-0-0-0-|-1-1-1-1-1-1-1-1-|-1-1-1-1-1-1-1-1-|
B|-1-1-1-1-1-1-1-1-|-1-1-1-1-1-1-1-1-|-3-3-3-3-3-3-3-3-|-3-3-3-3-3-3-3-3-|
G|-2-2-2-2-2-2-2-2-|-0-0-0-0-0-0-0-0-|-2-2-2-2-2-2-2-2-|-2-2-2-2-2-2-2-2-|
D|-3-3-3-3-3-3-3-3-|-2-2-2-2-2-2-2-2-|-0-0-0-0-0-0-0-0-|-0-0-0-0-0-0-0-0-|
A|-x-x-x-x-x-x-x-x-|-3-3-3-3-3-3-3-3-|-----------------|-----------------|
E|-1-1-1-1-1-1-1-1-|-----------------|-----------------|-----------------|

   F                 C                 Am                Bb
E|-1-1-1-1-1-1-1-1-|-0-0-0-0-0-0-0-0-|-0-0-0-0-0-0-0-0-|-----------------|
B|-1-1-1-1-1-1-1-1-|-1-1-1-1-1-1-1-1-|-1-1-1-1-1-1-1-1-|-3-3-3-3-3-3-3-3-|
G|-2-2-2-2-2-2-2-2-|-0-0-0-0-0-0-0-0-|-2-2-2-2-2-2-2-2-|-3-3-3-3-3-3-3-3-|
D|-3-3-3-3-3-3-3-3-|-2-2-2-2-2-2-2-2-|-2-2-2-2-2-2-2-2-|-3-3-3-3-3-3-3-3-|
A|-x-x-x-x-x-x-x-x-|-3-3-3-3-3-3-3-3-|-0-0-0-0-0-0-0-0-|-1-1-1-1-1-1-1-1-|
E|-1-1-1-1-1-1-1-1-|-----------------|-----------------|-----------------|

[PRE-VERSE]
E|-x-x-x-x-x-x-x-x-x-x-x-x-x-x-x-x-|-x-x-x-x-x-x-x-x-x-x-x-x-x-x-x-x-|-x-x-x-x-x-x-x-x-x-x-x-x-x-x-x-x-|
B|-x-x-x-x-x-x-x-x-x-x-x-x-x-x-x-x-|-x-x-x-x-x-x-x-x-x-x-x-x-x-x-x-x-|-x-x-x-x-x-x-x-x-x-x-x-x-x-x-x-x-|
G|-x-x-x-x-x-x-x-x-x-x-x-x-x-x-x-x-|-x-x-x-x-x-x-x-x-x-x-x-x-x-x-x-x-|-x-x-x-x-x-x-x-x-x-x-x-x-x-x-x-x-|
D|-x-x-x-x-x-x-x-x-x-x-x-x-x-x-x-x-|-x-x-x-x-x-x-x-x-x-x-x-x-x-x-x-x-|-x-x-x-x-x-x-x-x-x-x-x-x-x-x-x-x-|
A|-x-x-x-x-x-x-x-x-x-x-x-x-x-x-x-x-|-x-x-x-x-x-x-x-x-x-x-x-x-x-x-x-x-|-x-x-x-x-x-x-x-x-x-x-x-x-x-x-x-x-|
E|-x-x-x-x-x-x-x-x-x-x-x-x-x-x-x-x-|-x-x-x-x-x-x-x-x-x-x-x-x-x-x-x-x-|-x-x-x-x-x-x-x-x-x-x-x-x-x-x-x-x-|

E|-x-x-x-x-x-x-x-x-x-x-x-x-x-x-x-x-|-x-x-x-x-x-x-x-x-x-x-x-x-x-x-x-x-|-x-x-x-x-x-x-x-x-x-x-x-x-x-x-x-x-|
B|-x-x-x-x-x-x-x-x-x-x-x-x-x-x-x-x-|-x-x-x-x-x-x-x-x-x-x-x-x-x-x-x-x-|-x-x-x-x-x-x-x-x-x-x-x-x-x-x-x-x-|
G|-x-x-x-x-x-x-x-x-x-x-x-x-x-x-x-x-|-x-x-x-x-x-x-x-x-x-x-x-x-x-x-x-x-|-x-x-x-x-x-x-x-x-x-x-x-x-x-x-x-x-|
D|-x-x-x-x-x-x-x-x-x-x-x-x-x-x-x-x-|-x-x-x-x-x-x-x-x-x-x-x-x-x-x-x-x-|-x-x-x-x-x-x-x-x-x-x-x-x-x-x-x-x-|
A|-x-x-x-x-x-x-x-x-x-x-x-x-x-x-x-x-|-x-x-x-x-x-x-x-x-x-x-x-x-x-x-x-x-|-x-x-x-x-x-x-x-x-x-x-x-x-x-x-x-x-|
E|-x-x-x-x-x-x-x-x-x-x-x-x-x-x-x-x-|-x-x-x-x-x-x-x-x-x-x-x-x-x-x-x-x-|-x-x-x-x-x-x-x-x-x-x-x-x-x-x-x-x-|

E|-x-x-x-x-x-x-x-x-x-x-x-x-x-x-x-x-|-x-x-x-x-x-x-x----x----x----x----x-x-|
B|-x-x-x-x-x-x-x-x-x-x-x-x-x-x-x-x-|-x-x-x-x-x-x-x-13-x-13-x-13-x-13-x-x-|
G|-x-x-x-x-x-x-x-x-x-x-x-x-x-x-x-x-|-x-x-x-x-x-x-x----x----x----x----x-x-|
D|-x-x-x-x-x-x-x-x-x-x-x-x-x-x-x-x-|-x-x-x-x-x-x-x----x----x----x----x-x-|
E|-x-x-x-x-x-x-x-x-x-x-x-x-x-x-x-x-|-x-x-x-x-x-x-x----x----x----x----x-x-|
E|-x-x-x-x-x-x-x-x-x-x-x-x-x-x-x-x-|-x-x-x-x-x-x-x----x----x----x----x-x-|

[Verse]
E|-10-10-x-x-x-x-x-x-x-x-x-x-x-x-|-10-10-x-x-x-x-x-x-x-x-x-x-x-x-|-10-10-x-x-x-x-x-x-x-x-x-x-x-x-|
B|-10-10-x-x-x-x-x-x-x-x-x-x-x-x-|-10-10-x-x-x-x-x-x-x-x-x-x-x-x-|-10-10-x-x-x-x-x-x-x-x-x-x-x-x-|
G|-10-10-x-x-x-x-x-x-x-x-x-x-x-x-|-10-10-x-x-x-x-x-x-x-x-x-x-x-x-|-10-10-x-x-x-x-x-x-x-x-x-x-x-x-|
D|-12-12-x-x-x-x-x-x-x-x-x-x-x-x-|-12-12-x-x-x-x-x-x-x-x-x-x-x-x-|-12-12-x-x-x-x-x-x-x-x-x-x-x-x-|
A|-------x-x-x-x-x-x-x-x-x-x-x-x-|-------x-x-x-x-x-x-x-x-x-x-x-x-|-------x-x-x-x-x-x-x-x-x-x-x-x-|
E|-------x-x-x-x-x-x-x-x-x-x-x-x-|-------x-x-x-x-x-x-x-x-x-x-x-x-|-------x-x-x-x-x-x-x-x-x-x-x-x-|

E|-10-10-x-x-x-x----x----x----x----x-x-|-10-10-x-x-x-x-x-x-x-x-x-x-x-x-|-10-10-x-x-x-x-x-x-x-x-x-x-x-x-|
B|-10-10-x-x-x-x-13-x-13-x-13-x-13-x-x-|-10-10-x-x-x-x-x-x-x-x-x-x-x-x-|-10-10-x-x-x-x-x-x-x-x-x-x-x-x-|
G|-10-10-x-x-x-x----x----x----x----x-x-|-10-10-x-x-x-x-x-x-x-x-x-x-x-x-|-10-10-x-x-x-x-x-x-x-x-x-x-x-x-|
D|-12-12-x-x-x-x----x----x----x----x-x-|-12-12-x-x-x-x-x-x-x-x-x-x-x-x-|-12-12-x-x-x-x-x-x-x-x-x-x-x-x-|
A|-------x-x-x-x----x----x----x----x-x-|-------x-x-x-x-x-x-x-x-x-x-x-x-|-------x-x-x-x-x-x-x-x-x-x-x-x-|
E|-------x-x-x-x----x----x----x----x-x-|-------x-x-x-x-x-x-x-x-x-x-x-x-|-------x-x-x-x-x-x-x-x-x-x-x-x-|

E|-10-10-x-x-x-x-x-x-x-x-x-x-x-x-|-10-10-10-10-10-10-10-10-10-10-10-10-10-10-|
B|-10-10-x-x-x-x-x-x-x-x-x-x-x-x-|-10-10-10-10-10-10-10-10-10-10-10-10-10-10-|
G|-10-10-x-x-x-x-x-x-x-x-x-x-x-x-|-10-10-10-10-10-10-10-10-10-10-10-10-10-10-|
D|-12-12-x-x-x-x-x-x-x-x-x-x-x-x-|-12-12-12-12-12-12-12-12-12-12-12-12-12-12-|
A|-------x-x-x-x-x-x-x-x-x-x-x-x-|-------------------------------------------|
E|-------x-x-x-x-x-x-x-x-x-x-x-x-|-------------------------------------------|

[Instrumental]
E||-------------------------|-------------------------|------------------------|------------------------|
B||-------------------------|-------------------------|------------------------|------------------------|
G||-------------------------|-------------------------|------------------------|------------------------|
D||-10-10-10-10-10-10-10-10-|-10-10-10-10-10-10-10-10-|------------------------|------------------------|
A||-------------------------|-------------------------|-7--7--7--7--7--7--7--7-|-7--7--7--7--7--7--7--7-|
E||-------------------------|-------------------------|------------------------|------------------------|
     .  .  .  .  .  .  .  .    .  .  .  .  .  .  .  .   .  .  .  .  .  .  .  .   .  .  .  .  .  .  .  .
E||------------------------|------------------------|------------------------|------------------------|
B||------------------------|------------------------|------------------------|------------------------|
G||------------------------|------------------------|------------------------|-------------9--9--7--7-|
D||------------------------|------------------------|------------------------|------------------------|
A||-8--8--8--8--8--8--8--8-|------------------------|-7--7--7--7--7--7--7--7-|-7--7--7--7-------------|
E||------------------------|-8--8--8--8--8--8--8--8-|------------------------|------------------------|
    .  .  .  .  .  .  .  .   .  .  .  .  .  .  .  .   .  .  .  .  .  .  .  .   .  .  .  . 
E||-------------------------|-------------------------|------------------------|------------------------|
B||-------------------------|-------------------------|------------------------|------------------------|
G||-------------------------|-------------------------|------------------------|------------------------|
D||-10-10-10-10-10-10-10-10-|-------------------------|----------------7--7--7-|-7--7--7--7--7--7--5--5-|
A||-------------------------|-10-10-10-10-10-10-10-10-|-7--7--7--7--7--7--7--7-|-7--7--7--7--7--7--5--5-|
E||-------------------------|-------------------------|------------------------|------------------------|
     .  .  .  .  .  .  .  .    .  .  .  .  .  .  .  .   .  .  .  .  .  .  .  .   .  .  .  .  .  .  .  .

E||------------------------|------------------------|-------------------------|-------------------------|
B||------------------------|-5--5--5--5--5--5--5--5-|-10-10-10-10-10-10-10-10-|-10-10-10-10-10-10-10-10-|
G||------------------------|-5--5--5--5--5--5--5--5-|--9--9--9--9--9--9--9--9-|--9--9--9--9--9--9--9--9-|
D||-3--3--3--3--3--3--3--3-|------------------------|-------------------------|-------------------------|
A||-3--3--3--3--3--3--3--3-|------------------------|-------------------------|-------------------------|
E||------------------------|------------------------|-------------------------|-------------------------|
    .  .  .  .  .  .  .  .    .  .  .  .  .  .  .  .  

[PRE-VERSE]
E|-10-10--------------------|-10-10--------------------|-10-10--------------------|
B|-10-10--------------------|-10-10--------------------|-10-10--------------------|
G|-10-10--------------------|-10-10--------------------|-10-10--------------------|
D|-12-12--------------------|-12-12--------------------|-12-12--------------------|
A|--------------------------|--------------------------|--------------------------|
E|--------------------------|--------------------------|--------------------------|

E|-10-10-----------------------------|
B|-10-10---------13-x-13-x-13-x-13-x-|
G|-10-10-----------------------------|
D|-12-12-----------------------------|
A|-----------------------------------|
E|-----------------------------------|

[Verse 3]
E|-10-10-x-x-x-x-x-x-x-x-x-x-x-x-|-10-10-x-x-x-x-x-x-x-x-x-x-x-x-|-10-10-x-x-x-x-x-x-x-x-x-x-x-x-|
B|-10-10-x-x-x-x-x-x-x-x-x-x-x-x-|-10-10-x-x-x-x-x-x-x-x-x-x-x-x-|-10-10-x-x-x-x-x-x-x-x-x-x-x-x-|
G|-10-10-x-x-x-x-x-x-x-x-x-x-x-x-|-10-10-x-x-x-x-x-x-x-x-x-x-x-x-|-10-10-x-x-x-x-x-x-x-x-x-x-x-x-|
D|-12-12-x-x-x-x-x-x-x-x-x-x-x-x-|-12-12-x-x-x-x-x-x-x-x-x-x-x-x-|-12-12-x-x-x-x-x-x-x-x-x-x-x-x-|
A|-------x-x-x-x-x-x-x-x-x-x-x-x-|-------x-x-x-x-x-x-x-x-x-x-x-x-|-------x-x-x-x-x-x-x-x-x-x-x-x-|
E|-------x-x-x-x-x-x-x-x-x-x-x-x-|-------x-x-x-x-x-x-x-x-x-x-x-x-|-------x-x-x-x-x-x-x-x-x-x-x-x-|

E|-10-10-x-x-x-x----x----x----x----x-x-|-10-10-x-x-x-x-x-x-x-x-x-x-x-x-|-10-10-x-x-x-x-x-x-x-x-x-x-x-x-|
B|-10-10-x-x-x-x-13-x-13-x-13-x-13-x-x-|-10-10-x-x-x-x-x-x-x-x-x-x-x-x-|-10-10-x-x-x-x-x-x-x-x-x-x-x-x-|
G|-10-10-x-x-x-x----x----x----x----x-x-|-10-10-x-x-x-x-x-x-x-x-x-x-x-x-|-10-10-x-x-x-x-x-x-x-x-x-x-x-x-|
D|-12-12-x-x-x-x----x----x----x----x-x-|-12-12-x-x-x-x-x-x-x-x-x-x-x-x-|-12-12-x-x-x-x-x-x-x-x-x-x-x-x-|
A|-------x-x-x-x----x----x----x----x-x-|-------x-x-x-x-x-x-x-x-x-x-x-x-|-------x-x-x-x-x-x-x-x-x-x-x-x-|
E|-------x-x-x-x----x----x----x----x-x-|-------x-x-x-x-x-x-x-x-x-x-x-x-|-------x-x-x-x-x-x-x-x-x-x-x-x-|

E|-10-10-x-x-x-x-x-x-x-x-x-x-x-x-|-10-10-10-10-10-10-10-10-10-10-10-10-10-10-|
B|-10-10-x-x-x-x-x-x-x-x-x-x-x-x-|-10-10-10-10-10-10-10-10-10-10-10-10-10-10-|
G|-10-10-x-x-x-x-x-x-x-x-x-x-x-x-|-10-10-10-10-10-10-10-10-10-10-10-10-10-10-|
D|-12-12-x-x-x-x-x-x-x-x-x-x-x-x-|-12-12-12-12-12-12-12-12-12-12-12-12-12-12-|
A|-------x-x-x-x-x-x-x-x-x-x-x-x-|-------------------------------------------|
E|-------x-x-x-x-x-x-x-x-x-x-x-x-|-------------------------------------------|

[Chorus]
   F                 C                 Dm
E|-1-1-1-1-1-1-1-1-|-0-0-0-0-0-0-0-0-|-1-1-1-1-1-1-1-1-|-1-1-1-1-1-1-1-1-|
B|-1-1-1-1-1-1-1-1-|-1-1-1-1-1-1-1-1-|-3-3-3-3-3-3-3-3-|-3-3-3-3-3-3-3-3-|
G|-2-2-2-2-2-2-2-2-|-0-0-0-0-0-0-0-0-|-2-2-2-2-2-2-2-2-|-2-2-2-2-2-2-2-2-|
D|-3-3-3-3-3-3-3-3-|-2-2-2-2-2-2-2-2-|-0-0-0-0-0-0-0-0-|-0-0-0-0-0-0-0-0-|
A|-x-x-x-x-x-x-x-x-|-3-3-3-3-3-3-3-3-|-----------------|-----------------|
E|-1-1-1-1-1-1-1-1-|-----------------|-----------------|-----------------|

   F                 C                 Am                Bb
E|-1-1-1-1-1-1-1-1-|-0-0-0-0-0-0-0-0-|-0-0-0-0-0-0-0-0-|-----------------|
B|-1-1-1-1-1-1-1-1-|-1-1-1-1-1-1-1-1-|-1-1-1-1-1-1-1-1-|-3-3-3-3-3-3-3-3-|
G|-2-2-2-2-2-2-2-2-|-0-0-0-0-0-0-0-0-|-2-2-2-2-2-2-2-2-|-3-3-3-3-3-3-3-3-|
D|-3-3-3-3-3-3-3-3-|-2-2-2-2-2-2-2-2-|-2-2-2-2-2-2-2-2-|-3-3-3-3-3-3-3-3-|
A|-x-x-x-x-x-x-x-x-|-3-3-3-3-3-3-3-3-|-0-0-0-0-0-0-0-0-|-1-1-1-1-1-1-1-1-|
E|-1-1-1-1-1-1-1-1-|-----------------|-----------------|-----------------|

   F                 C                 Dm
E|-1-1-1-1-1-1-1-1-|-0-0-0-0-0-0-0-0-|-1-1-1-1-1-1-1-1-|-1-1-1-1-1-1-1-1-|
B|-1-1-1-1-1-1-1-1-|-1-1-1-1-1-1-1-1-|-3-3-3-3-3-3-3-3-|-3-3-3-3-3-3-3-3-|
G|-2-2-2-2-2-2-2-2-|-0-0-0-0-0-0-0-0-|-2-2-2-2-2-2-2-2-|-2-2-2-2-2-2-2-2-|
D|-3-3-3-3-3-3-3-3-|-2-2-2-2-2-2-2-2-|-0-0-0-0-0-0-0-0-|-0-0-0-0-0-0-0-0-|
A|-x-x-x-x-x-x-x-x-|-3-3-3-3-3-3-3-3-|-----------------|-----------------|
E|-1-1-1-1-1-1-1-1-|-----------------|-----------------|-----------------|

   F                 C                 Am                Bb
E|-1-1-1-1-1-1-1-1-|-0-0-0-0-0-0-0-0-|-0-0-0-0-0-0-0-0-|-----------------|
B|-1-1-1-1-1-1-1-1-|-1-1-1-1-1-1-1-1-|-1-1-1-1-1-1-1-1-|-3-3-3-3-3-3-3-3-|
G|-2-2-2-2-2-2-2-2-|-0-0-0-0-0-0-0-0-|-2-2-2-2-2-2-2-2-|-3-3-3-3-3-3-3-3-|
D|-3-3-3-3-3-3-3-3-|-2-2-2-2-2-2-2-2-|-2-2-2-2-2-2-2-2-|-3-3-3-3-3-3-3-3-|
A|-x-x-x-x-x-x-x-x-|-3-3-3-3-3-3-3-3-|-0-0-0-0-0-0-0-0-|-1-1-1-1-1-1-1-1-|
E|-1-1-1-1-1-1-1-1-|-----------------|-----------------|-----------------|

[Outro]
   F                 C                 Dm
E|-1-1-1-1-1-1-1-1-|-----------------|-5-5-5-5-5-5-5-5-|-5-5-5-5-5-5-5-5-|
B|-1-1-1-1-1-1-1-1-|-5-5-5-5-5-5-5-5-|-6-6-6-6-6-6-6-6-|-6-6-6-6-6-6-6-6-|
G|-2-2-2-2-2-2-2-2-|-5-5-5-5-5-5-5-5-|-7-7-7-7-7-7-7-7-|-7-7-7-7-7-7-7-7-|
D|-3-3-3-3-3-3-3-3-|-5-5-5-5-5-5-5-5-|-7-7-7-7-7-7-7-7-|-7-7-7-7-7-7-7-7-|
A|-x-x-x-x-x-x-x-x-|-3-3-3-3-3-3-3-3-|-5-5-5-5-5-5-5-5-|-5-5-5-5-5-5-5-5-|
E|-1-1-1-1-1-1-1-1-|-----------------|-----------------|-----------------|

   F                 C                 Am                Bb
E|-1-1-1-1-1-1-1-1-|-----------------|-5-5-5-5-5-5-5-5-|-6-6-6-6-6-6-6-6-|
B|-1-1-1-1-1-1-1-1-|-5-5-5-5-5-5-5-5-|-5-5-5-5-5-5-5-5-|-6-6-6-6-6-6-6-6-|
G|-2-2-2-2-2-2-2-2-|-5-5-5-5-5-5-5-5-|-5-5-5-5-5-5-5-5-|-7-7-7-7-7-7-7-7-|
D|-3-3-3-3-3-3-3-3-|-5-5-5-5-5-5-5-5-|-7-7-7-7-7-7-7-7-|-8-8-8-8-8-8-8-8-|
A|-x-x-x-x-x-x-x-x-|-3-3-3-3-3-3-3-3-|-x-x-x-x-x-x-x-x-|-x-x-x-x-x-x-x-x-|
E|-1-1-1-1-1-1-1-1-|-----------------|-5-5-5-5-5-5-5-5-|-6-6-6-6-6-6-6-6-|

Dm
E|----------|
B|-6~-------|
G|-7~-------|
D|-7~-------|
A|-5~-------|
E|----------|            
Submit corrections


        By The Way lessons Hard to play? Try these video lessons and learn fast By The Way lessons
        
↑ Back to top | Tablatures and chords for acoustic guitar and electric guitar, ukulele, drums are parodies/interpretations of the original songs. You may use it for private study, scholarship, research or language learning purposes only