» » »

Red Hot Chili Peppers - By The Way Tabs

Artists:  A B C D E F G H I J K L M N O P Q R S T U V W X Y Z # 

By The Way Tabs

(ver. 11) Click to play this song!
Red Hot Chili Peppers
 Rating:
4.3/5 (18 votes)

 By The Way lessons Tabs too difficult? Try these video lessons and learn fast
 
                Outro]
( Start at 3:36 ) 
        Dm   Dm      Dm     Am  Am        Bb              Dm    Dm      Dm    Am     Bb
e|--------------------------------------------------------------------------------8-----------------|
B|-------6----6--x----6------5---5--- x----6---------------6----6--x-----6-----5--5--6--------------|
G|-------7----7--x----7------5---5----x----7---------------7----7--x-----7-----5--5--7--------------|
D|-------7----7--x----7------7---7----x----8---------------7----7--x-----7-----7-----8--------------|
A|-------5----5--x----5------x---x----x----x---------------5----5--x-----5-----x-----x--------------|
E|---------------------------5---5----x----6-----------------------------------5-----6--------------|

e|---------------------------------------------------------|
B|-10-10-10--10-10-10--13-13-13----x-x--5---5-x---6--------|
G|-10-10-10--10-10-10--10-10-10----x-x--5---5-x---7--------|
D|-12-12-12--10-10-10--------------x-x--7---7-x---8--------|
A|-12-12-12------------------------x-x--x---x-x---x--------|
E|--------------------------------------5---5-x---6--------|

e|----------12-12-12-------------------8-------------------|
B|-10-10-10-10-10-10-13-13-13---x-x--5-5--6----------------|
G|-10-10-10-10-10-10-10-10-10---x-x--5-5--7----------------|
D|-12-12-12-10-10-10------------x-x--7----8----------------|
A|------------------------------x-x--x----x----------------|
E|-----------------------------------5----6----------------|

e|------------------------------------------------------------------------------10---------------|
B|-10-10-10-10-11--11-11-10-x-x--10-10-x-10-----10-10-10-10-11--11-11-10-x-x-10----10--10-10-10--|
G|-10-10-10-10-10--10-10-10-x-x--9--9--x-11-----10-10-10-10-10--10-10-10-x-x--9----11--11-11-11--|
D|-12-12-12-12-10--10-10-10-x-x--10-10-x-10-----12-12-12-12-10--10-10-10-x-x-10----10--10-10-10--|
A|-----------------------------------------------------------------------------------------------|
E|-----------------------------------------------------------------------------------------------|

e|-13--13-13-13--17-15-13-15-13---12-12-x-13--13-13-13-13-----13--13-13-13--17-15-13-15-13---12--15-13---|
B|-15--15-15-15--15-15-15-15-15---13-13-x-15--15-15-15-15-----15--15-15-15--15-15-15-15-15---13-----15---|
G|-14--14-14-14-------------------14-14-x-15--15-15-15-15-----14--14-14-14-------------------14-----15---|
D|-------------------------------------------------------------------------------------------------------|
A|-------------------------------------------------------------------------------------------------------|
E|-------------------------------------------------------------------------------------------------------|
            
Submit corrections


        By The Way lessons Hard to play? Try these video lessons and learn fast By The Way lessons
        
↑ Back to top | Tablatures and chords for acoustic guitar and electric guitar, ukulele, drums are parodies/interpretations of the original songs. You may use it for private study, scholarship, research or language learning purposes only