Home » R » Razorlight »

Razorlight - America Bass

Artists:  A B C D E F G H I J K L M N O P Q R S T U V W X Y Z # 

America Bass

(ver. 2) Click to play this song!
Razorlight
Bass enters on 'all my life...'
0:43
G|-5h7-7----|
D|----------| x8
A|----------|
E|----------|

0:52
G|---------------------------------------------------------------------------|
D|---------------------------------------------------------------------------|
A|----------------0-0-0-0-5-5------------------------------------------------|
E|-3-2-0-0-0------------------3-3-3-3-2-2-2-2-0-0-0-0------------------------|

G|---------------------------------------------------------------------------|
D|---------------------------------------------------------------------------|
A|-0-0-0-0-5-----------------------------------------------------------------|
E|---------------------------------------------------------------------------|

1:01 More Guitar + Vox

1:32 'all my life...'
G|-5h7-7----|
D|----------| x8
A|----------|
E|----------|

1:42
G|---------------------------------------------------------------------------|
D|---------------------------------------------------------------------------|
A|----------------0-0-0-0-5-5------------------------------------------------|
E|-3-2-0-0-0------------------3-3-3-3-2-2-2-2-0-0-0-0------------------------|

G|---------------------------------------------------------------------------|
D|---------------------------------------------------------------------------|
A|-0-0-0-0-0-5--5--5-------------------------0-0-0---------------------------|
E|-------------------3-3-3-3-2-2-2-2-0-0-0-0---------------------------------|

G|---------------------------------------------------------------------------|
D|---------------------------------------------------------------------------|
A|-0--5----------------------------------------------------------------------|
E|---------------------------------------------------------------------------|

1:56 Little Quiet Bit, Then Vox Enter

Through the quiet bit you can just play d|-5-5-5-5-| over and over once the vocals enter

2:51 'all my life'
G|---------------------------------------------------------------------------|
D|---------------------------------------------------------------------------|
A|----------------0-0-0-0-5-5------------------------------------------------|
E|-3-2-0-0-0------------------3-3-3-3-2-2-2-2-0-0-0-0------------------------|

G|---------------------------------------------------------------------------|
D|---------------------------------------------------------------------------|
A|-0-0-0-0-5-----------------------------------------------------------------|
E|---------------------------------------------------------------------------|


Then just repeat this till the quiet bit(3:33)
G|---------------------------------------------------------------------------|
D|---------------------------------------------------------------------------|
A|-----------------------0-0-0-0-5-5-5---------------------------------------|
E|-3-3-3-3-2-2-2-2-0-0-0-----------------------------------------------------|
            
Submit corrections

↑ Back to top | Tablatures and chords for acoustic guitar and electric guitar, ukulele, drums are parodies/interpretations of the original songs. You may use it for private study, scholarship, research or language learning purposes only