Home » R » Razorlight »

Razorlight - America Bass

Artists:  A B C D E F G H I J K L M N O P Q R S T U V W X Y Z # 

America Bass

(ver. 1) Click to play this song!
Razorlight
----------------------------------------------------------------------------
----------------------------------------------------------------------------


Tuning : Standard EADG

Intro: Guitar + Vox 
Bass enters on 'all my life...'
0:43
G|-17h19-19-|
D|----------| x8
A|----------|
E|----------|

0:52
G|-------------------------------------------------------------------------|
D|-------------------------------------------------------------------------|
A|----------------12-12-12-12----------------------------------------------|
E|-15-14-12-12-12-------------10-10-15-15-15-15-14-14-14-14-12-12-12-12----|

G|-------------------------------------------------------------------------|
D|-------------------------------------------------------------------------|
A|-12-12-12-12-12----------------------------------------------------------|
E|----------------10-------------------------------------------------------|

1:01 More Guitar + Vox

1:32 'all my life...'
G|-17h19-19-|
D|----------| x8
A|----------|
E|----------|

1:42
G|-------------------------------------------------------------------------|
D|-------------------------------------------------------------------------|
A|----------------12-12-12-12----------------------------------------------|
E|-15-14-12-12-12-------------10-10-15-15-15-15-14-14-14-14-12-12-12-12----|

G|-------------------------------------------------------------------------|
D|-------------------------------------------------------------------------|
A|-12-12-12-12-12----------------------------------------------12-12-12----|
E|----------------10-10-10-15-15-15-15-14-14-14-14-12-12-12-12-------------|

G|-------------------------------------------------------------------------|
D|-------------------------------------------------------------------------|
A|-12----------------------------------------------------------------------|
E|----10-------------------------------------------------------------------|

1:56 Little Quiet Bit, Then Vox Enter

Through the quiet bit you can just play A|-10-10-10-10-| over and over once the vocals enter

2:51 'all my life'
G|-------------------------------------------------------------------------|
D|-------------------------------------------------------------------------|
A|----------------12-12-12-12----------------------------------------------|
E|-15-14-12-12-12-------------10-10-15-15-15-15-14-14-14-14-12-12-12-12----|

G|-------------------------------------------------------------------------|
D|-------------------------------------------------------------------------|
A|-12-12-12-12-12----------------------------------------------------------|
E|----------------10-10-10--------------------------------------------------

Then just repeat this till the quiet bit(3:33)
G|-------------------------------------------------------------------------|
D|-------------------------------------------------------------------------|
A|----------------------------------12-12-12-12----------------------------|
E|-15-15-15-15-14-14-14-14-12-12-12-------------10-10-10-------------------|

| /  slide up
| \  slide down
| h  hammer-on
| p  pull-off
| ~  vibrato
| +  harmonic
| x  Mute note
============================================================================
            
Submit corrections

↑ Back to top | Tablatures and chords for acoustic guitar and electric guitar, ukulele, drums are parodies/interpretations of the original songs. You may use it for private study, scholarship, research or language learning purposes only