Home » R » Razorlight »

Razorlight - America Bass

Artists:  A B C D E F G H I J K L M N O P Q R S T U V W X Y Z # 

America Bass

(ver. 3) Click to play this song!
Razorlight
[Pre-Chorus]
Bass comes in 0:42
G|-18h19-19----|
D|-------------|  X7
A|-------------|
E|-------------|

G|-18h19-------|
D|-------------|
A|-------------|
E|-------------|

Straight into Chorus

[Chorus]
G|---------------------------------------------------------------------------|
D|-5~-4~-2~-2~-/7~-77~-7~-77~--0~-0~-/5~-55~-4-4~--2~-2~-/7~-77~-7~-4\0~-----|
A|---------------------------------------------------------------------------|
E|---------------------------------------------------------------------------|

Hold final note until guitar comes back in then mute

[Pre-Chorus]
Bass comes back in at 1:32
G|-18h19-19----|
D|-------------|  X7
A|-------------|
E|-------------|

G|-18h19-------|
D|-------------|
A|-------------|
E|-------------|

Straight into Chorus

[Chorus]
G|---------------------------------------------------------------------------|
D|-5~-4~-2~-2~-/7~-77~-7~-77~--0~-0~-/5~-55~-4-4~-2~-2~-/7~-77~-7~-77~-------|
A|---------------------------------------------------------------------------|
E|---------------------------------------------------------------------------|

G|---------------------------------------------------------------------------|
D|-0~-0~-/5~-55~-4-4~-2~-2~-/7~-77~-7~-4\0~----------------------------------|
A|---------------------------------------------------------------------------|
E|---------------------------------------------------------------------------|

[Bridge]
G|---7---7----|
D|------------|
A|------------| X16
E|-0---0------|

Mute each note before playing the next one

G|---7~~------|
D|------------|
A|------------| 
E|-0----------|

Hold last note on until the chorus is played at 2:51

[Chorus]
G|---------------------------------------------------------------------------|
D|-5~-4~-2~-2~-/7~-77~-7~-77~--0~-0~-/5~-55~-4-4~----------------------------|
A|---------------------------------------------------------------------------|
E|---------------------------------------------------------------------------|

G|---------------------------------------------------------------------------|
D|-2~-2~-/7~-77~-7~-77~-0~-0~-/5~-55~-4-4~-----------------------------------|
A|---------------------------------------------------------------------------| X7
E|---------------------------------------------------------------------------|

G|---------------------------------------------------------------------------|
D|-2~-2~-/7~-77~-7~-4\0~-----------------------------------------------------|
A|---------------------------------------------------------------------------| 
E|---------------------------------------------------------------------------|

No bass after final Chorus            
Submit corrections

↑ Back to top | Tablatures and chords for acoustic guitar and electric guitar, ukulele, drums are parodies/interpretations of the original songs. You may use it for private study, scholarship, research or language learning purposes only