» » »

Razorlight - America Tabs

Artists:  A B C D E F G H I J K L M N O P Q R S T U V W X Y Z # 

America Tabs

(ver. 1) Click to play this song!
Razorlight
 Rating:
3.7/5 (39 votes)

 America lessons Tabs too difficult? Try these video lessons and learn fast
 
                (Intro)
----------------------------------------------------------------------------
                             AMERICA - Razorlight
----------------------------------------------------------------------------

This is a great new song that I had to learn to play, however the first version of tab 
to this site was nowhere near accurate. So here is my
interpretation of the intro, I look forward to someone else working out the
rest.

Standard Tuning with a Capo 7th Fret

Chords are basically (G/A/F#m/G)

E-|---------------------------------------------------------|
B-|---------------------3-----------------------------------|
G-|--------0---------------0-----2--2-p-0-----0-----0-------|
D-|-----2------------4---------------------2----------------|
A-|--3--------3-/-5-----------2------------------3----------|
E-|---------------------------------------------------------|

E-|---------------------------------------------------------|
B-|--------1------------------3-----------0-----------------|
G-|-----------0------------------0-----------2-----0-----0--|
D-|-----2--------2---------4-----------0--------2-----------|
A-|--3--------------3-/-5-----------2-----------------3-----|
E-|---------------------------------------------------------|

E-|--------3--0-----------2--------0------------------------|
B-|-----1--------1-----0--------------3--0-h-1-p-0-h-1------|
G-|-----------------------------------------------------0---|
D-|-----------------------------0---------------------------|
A-|--3--------------5--------2------------------------------|
E-|---------------------------------------------------------|

E-|------------------------------------2--3--0--------------|
B-|---------------------------------------------------------|
G-|--------0---------------0--------------------------------|
D-|-----2-----2---------4-----4-----0--------------2--------|
A-|--3-----------3-/-5-----------2--------------3-----------|
E-|---------------------------------------------------------|

| /  slide up
| \  slide down
| h  hammer-on
| p  pull-off
| ~  vibrato
| +  harmonic
| x  Mute note
============================================================================
            
Submit corrections


        America lessons Hard to play? Try these video lessons and learn fast America lessons
        
↑ Back to top | Tablatures and chords for acoustic guitar and electric guitar, ukulele, drums are parodies/interpretations of the original songs. You may use it for private study, scholarship, research or language learning purposes only