Home » R » Rascal Flatts »

Rascal Flatts - Too Good Is True(2) Tabs

Artists:  A B C D E F G H I J K L M N O P Q R S T U V W X Y Z # 

Too Good Is True(2) Tabs

(ver. 3) Click to play this song!
Rascal Flatts
 Rating:
4/5 (4 votes)
                Rascal Flatts, Too Good is True


E-----------------------------------------
B------------------------------------5----
G------5-5-----5-5-----5-----5-5-------7-5
D--5h7-----5h7-----5h7---5h7-----7p5------
A-----------------------------------------
E-----------------------------------------

E-------------------------------------------
B-------------------------------------------
G------5-5-----5-5-----5-----5-5-----5-7/9-5
D--5h7-----5h7-----5h7---5h7-----5h7--------
A-------------------------------------------
E-------------------------------------------
            
Submit corrections

↑ Back to top | Tablatures and chords for acoustic guitar and electric guitar, ukulele, drums are parodies/interpretations of the original songs. You may use it for private study, scholarship, research or language learning purposes only