Home » R » Rascal Flatts »

Rascal Flatts - Too Good Is True(2) Tabs

Artists:  A B C D E F G H I J K L M N O P Q R S T U V W X Y Z # 

Too Good Is True(2) Tabs

(ver. 1) Click to play this song!
Rascal Flatts
 Rating:
4/5 (4 votes)
                Rascal Flatts, Too Good is True


E----------------------------------------------------------
B-----5-5/7-----5-5/7-----5-5/7----------------------------
G-5/7------5/7-------5/7--------7--------------------------
D----------------------------------5-5/7-----------10--12--
A-----------------------------------------7/10-12----------
E----------------------------------------------------------

E-------------------------------------------------------
B---------10--13b--10h13p10-10--------------------------
G--10--12----------------------12-10/12--10/12/7-7-------
D-------------------------------------------------------
A-------------------------------------------------------
E-------------------------------------------------------
            
Submit corrections

↑ Back to top | Tablatures and chords for acoustic guitar and electric guitar, ukulele, drums are parodies/interpretations of the original songs. You may use it for private study, scholarship, research or language learning purposes only