Home » R » Rainbow Kitten Surprise »

Rainbow Kitten Surprise - Alls Well That Ends Tabs

Artists:  A B C D E F G H I J K L M N O P Q R S T U V W X Y Z # 

Alls Well That Ends Tabs

(ver. 3) Click to play this song!
Rainbow Kitten Surprise
 Rating:
4.3/5 (24 votes)
                Capo on 4th

repeats throughout

e|-------------------------------------------|
B|-------------0-0h3p0-----0-----------------|
G|----0---0------------2-----2-0-2---4p2p0---|
D|--2---2---2--------------------------------|
A|-----------------------3-------------------|
E|-------------------------------------------|

e|--------------------|
B|--------------------|
G|--------------0-----|
D|---2---2--------2---| x2
A|--------------------|
E|-3---3----(33)------|
              ^
        listen for the picking            
Submit corrections

↑ Back to top | Tablatures and chords for acoustic guitar and electric guitar, ukulele, drums are parodies/interpretations of the original songs. You may use it for private study, scholarship, research or language learning purposes only