Home » R » Rainbow Kitten Surprise »

Rainbow Kitten Surprise - Alls Well That Ends Tabs

Artists:  A B C D E F G H I J K L M N O P Q R S T U V W X Y Z # 

Alls Well That Ends Tabs

(ver. 1) Click to play this song!
Rainbow Kitten Surprise
 Rating:
2.6/5 (27 votes)
                Pretty much the whole song
e|--------------------------------------------|
B|--------------------------------------------|
G|--------------8-8h11p8----8----------8------|
D|----9----9------------------11----11~~~11p9-|
A|-11---11---11----------11------11-----------|
D|--------------------------------------------|

e|--------------------|
B|--------------------|
G|--------------------|
D|--------------9-----| x2
A|---11---11------11--|
D|-9----9---(99)------|
              ^
               
Submit corrections

↑ Back to top | Tablatures and chords for acoustic guitar and electric guitar, ukulele, drums are parodies/interpretations of the original songs. You may use it for private study, scholarship, research or language learning purposes only