Home » R » Rainbow Kitten Surprise »

Rainbow Kitten Surprise - Devil Like Me Tabs

Artists:  A B C D E F G H I J K L M N O P Q R S T U V W X Y Z # 

Devil Like Me Tabs

(ver. 1) Click to play this song!
Rainbow Kitten Surprise
 Rating:
4/5 (4 votes)
                e|---------------------------------------------------------------------------|
B|---------------------------------------------------------------------------|
G|---------------------------------------------------------------------------|
D|-----------4-------4-------4---------------4-------4-------2---0-----------|
A|---2---2-------2-------2-------0-------------------------------------------|
D|-----------------------------------0---0-------0-------0-------------------|

e|---------------------------------------------------------------------------|
B|---------------------------------------------------------------------------|
G|---------------------------------------------------------------------------|
D|---------------------------------------------------------------------------|
A|-----------7-------7---7-/-9-\-7--------------7-------7---7-/-9-\-7---5----|
D|---5---5-------5----------------------5---5-------5------------------------|

My heart and soul were never mine to own, what you care to die for?

What you care to die for?

We die alone, we'll all die young, what you care to die for?

What you care to die from?

Snow glistens on the ledge, whiskey on the bed, shake it out and light a cigarette

Miss me when you, you wish you weren't right.

Shake me all out if I'm wrong, for you, for you.

Shake it all out when I'm gone, I, for you.

Is the devil so bad if he cries in his sleep, while the earth turns, and his kids learned to say, f**k you they
                                                                                              don't, love you.

Does the devil get scared if she dies in her dreams, where the earth burns, she cries 'cause she's nothing like,
                                                                                             is she like you?

What you want from a devil like me, devil like me?

You see the devil don't mean to be evil, he just regrettably forgets to exceed expectation.

Holes riddled in your head, little bit of lead, shake it out and line silhouette

Miss me when you, you wish weren't kind of glad.

Shake me all out when you're done, for you, for you            
Submit corrections

↑ Back to top | Tablatures and chords for acoustic guitar and electric guitar, ukulele, drums are parodies/interpretations of the original songs. You may use it for private study, scholarship, research or language learning purposes only