Home » R » Rainbow Kitten Surprise »

Rainbow Kitten Surprise - Alls Well That Ends Tabs

Artists:  A B C D E F G H I J K L M N O P Q R S T U V W X Y Z # 

Alls Well That Ends Tabs

(ver. 2) Click to play this song!
Rainbow Kitten Surprise
 Rating:
4.3/5 (18 votes)
                [Main Riff]
e|-----------------------------------------|
B|-----------2-2h5p2-0---------------------|
G|---2---2---------------6-4---4---6-4-----|
D|-4---4---4-----------0-----0---------4---|
A|-----------------------------------------|
E|-----------------------------------------|

e|-----------------------|
B|-----------------------|
G|-----------2-----------|
D|---4---4-----4---------| x2
A|-0---0---00------------|
E|-----------------------|            
Submit corrections

↑ Back to top | Tablatures and chords for acoustic guitar and electric guitar, ukulele, drums are parodies/interpretations of the original songs. You may use it for private study, scholarship, research or language learning purposes only