» » »

Portugal The Man - Out And In And In And Out Tabs

Artists:  A B C D E F G H I J K L M N O P Q R S T U V W X Y Z # 

Out And In And In And Out Tabs

(ver. 1) Click to play this song!
Portugal The Man
 Rating:
4.3/5 (18 votes)

 Out And In And In And Out lessons Tabs too difficult? Try these video lessons and learn fast
 
                Standar Tuning - EADGBe
Time - 4/4

[Intro - Verse]

e|-2----2----2----2--|-2----2----2----2--2--|-7----7----7----7--|-7----7----7----7--7-|
B|-3----3----3----3--|-3----3----3----3--3--|-9----9----9----9--|-9----9----9----9--9-|
G|-2----2----2----2--|-2----2----2----2--2--|-7----7----7----7--|-7----7----7----7--7-|
D|-0----0----0----0--|-0----0----0----0--0--|-0----0----0----0--|-0----0----0----0--0-|
A|-0----0----0----0--|-0----0----0----0--0--|-0----0----0----0--|-0----0----0----0--0-|
E|-------------------|----------------------|-------------------|---------------------|

e|-10---10---10---10-|-10---10---10---10-10-|-x--5--5--5--5--5--5--5-|-x--7--7--7--7--7--7--7-|
B|-12---12---12---12-|-12---12---12---12-12-|-x--7--7--7--7--7--7--7-|-x--9--9--9--9--9--9--9-|
G|-10---10---10---10-|-10---10---10---10-10-|-x--5--5--5--5--5--5--5-|-x--7--7--7--7--7--7--7-|
D|-0----0----0----0--|-0----0----0----0--0--|-x--0--0--0--0--0--0--0-|-x--0--0--0--0--0--0--0-|
A|-0----0----0----0--|-0----0----0----0--0--|-x--0--0--0--0--0--0--0-|-x--0--0--0--0--0--0--0-|
E|-------------------|----------------------|------------------------|------------------------|


[String Pt.1 Arranged for Guitar]

e|-0-----0-----0---|---0-----0-------|-0-----0-----0---|---0-----0------|
B|---3-----3-----3-|-----3-----3-----|---3-----3-----3-|-----3-----3----|
G|-----2-----2-----|-2-----2-----2---|-----4-----4-----|-4-----4-----4--|
D|-----------------|-----------------|-----------------|----------------|
A|-----------------|-----------------|-----------------|----------------|
E|-----------------|-----------------|-----------------|----------------|

e|-0-----0-----0---|---0-----0-------|-0-----0-----0---|---0-----0------|
B|---3-----3-----3-|-----3-----3-----|---3-----3-----3-|-----3-----3----|
G|-----3-----3-----|-3-----3-----3---|-----2-----2-----|-2-----2-----2--|
D|-----------------|-----------------|-----------------|----------------|
A|-----------------|-----------------|-----------------|----------------|
E|-----------------|-----------------|-----------------|----------------|



[String Pt. 2 Arranged for guitar]

e|-----------------|-----------------|-----------------|----------------|
B|-10~~~~~~~~~~~~~~|~~~~~~~~~~~~~~~~~|-12~~~~~~~~~~~~~~|-~~~~~~~~~~~~~~~|
G|-7~~~~~~~~~~~~~~~|~~~~~~~~~~~~~~~~~|-10~~~~~~~~~~~~~~|-~~~~~~~~~~~~~~~|
D|-----------------|-----------------|-----------------|----------------|
A|-----------------|-----------------|-----------------|----------------|
E|-----------------|-----------------|-----------------|----------------|

e|-----------------|-----------------|-----------------|----------------|
B|-15~~~~~~~~~~~~~~|-~~~~~~~~~~~~~~~~|-15~~~~~~~~~~~~~~|-~~~~~~~~~~~~~~~|
G|-12~~~~~~~~~~~~~~|-~~~~~~~~~~~~~~~~|-11~~~~~~~~~~~~~~|-~~~~~~~~~~~~~~~|
D|-----------------|-----------------|-----------------|----------------|
A|-----------------|-----------------|-----------------|----------------|
E|-----------------|-----------------|-----------------|----------------|

[Guitar Solo]

e|-----|--------|------------|--------|------------|---10-------10--|-----10-------10---|
B|-x-x-|-x--7\--|-----6--x-x-|-x--7\--|-----6--x-x-|-x-13b(15)-(15)-|-x-x-13b(15)-(15)--|
G|-x-x-|-x--7\--|-5h7----x-x-|-x--7\--|-5h7----x-x-|-x--------------|-x-x---------------|
D|-x-x-|-x------|--------x-x-|-x------|--------x-x-|-x--------------|-x-x---------------|
A|-----|--------|------------|--------|------------|----------------|-------------------|
E|-----|--------|------------|--------|------------|----------------|-------------------|

e|-10-------10---10---10---10-------10---10---10--|-10-------10---10---10---10-------10---10---10---10--|
B|-13b(15)-(15)-(15)-(15)--13b(15)-(15)-(15)-(15)-|-13b(15)-(15)-(15)-(15)--13b(15)-(15)-(15)-(15)-(15)-|
G|------------------------------------------------|-----------------------------------------------------|
D|------------------------------------------------|-----------------------------------------------------|
A|------------------------------------------------|-----------------------------------------------------|
E|------------------------------------------------|-----------------------------------------------------|

e|---------------|-17-------------|-17-----------|-------------|---------------|-17-------------|
B|---/15--18--15-|-----15--18--15-|-----15--15---|-------------|---/15--18--15-|-----15--18--15-|
G|---------------|----------------|--------------|-------------|---------------|----------------|
D|---------------|----------------|--------------|-------------|---------------|----------------|
A|---------------|----------------|--------------|-------------|---------------|----------------|
E|---------------|----------------|--------------|-------------|---------------|----------------|

e|-15-14-15-14-15-14-------|--------------|
B|-------------------15-13-|---15-15--15--|
G|-------------------------|--------------|
D|-------------------------|--------------|
A|-------------------------|--------------|
E|-------------------------|--------------|

e|-------------------------------10------|-(10)-10-------------------|---------------|--------------------|
B|-13h15h13-12h13h12-10h12h10----13b(15)-|-(15)----13-10-------------|--------10-----|-10--10----10-10----|
G|----------------------------12---------|---------------12-10-------|--------10-----|-10--10----10-10----|
D|---------------------------------------|---------------------12-10-|-12--12----12--|--------12-------12-|
A|---------------------------------------|---------------------------|---------------|--------------------|
E|---------------------------------------|---------------------------|---------------|--------------------|

e|----------------------|--------------|------------10-------------|-------------------------------|
B|----------------------|--------------|---------10----13-10-------|-------------------------------|
G|-----------10---------|------10------|-12b(14)-------------12-10-|-12b(13)-10--------------------|
D|-----10------------10-|---------12---|---------------------------|------------12-10-12~~~~~~~~~~~|
A|-/12----12-----/12----|---12---------|---------------------------|-------------------------------|
E|----------------------|--------------|---------------------------|-------------------------------|            
Submit corrections


        Out And In And In And Out lessons Hard to play? Try these video lessons and learn fast Out And In And In And Out lessons
        
↑ Back to top | Tablatures and chords for acoustic guitar and electric guitar, ukulele, drums are parodies/interpretations of the original songs. You may use it for private study, scholarship, research or language learning purposes only