» » »

Portugal The Man - Once Was One Tabs

Artists:  A B C D E F G H I J K L M N O P Q R S T U V W X Y Z # 

Once Was One Tabs

(ver. 1) Click to play this song!
Portugal The Man
 Rating:
4/5 (4 votes)

 Once Was One lessons Tabs too difficult? Try these video lessons and learn fast
 
                Tuning:Standard

e|---------------------------------------------------------------------------|
B|-------8--10-8-----88-10-8-----88-10-8-8-8-8-------------------------------|
G|---7-9--9------7-9---------7-9---------------------------------------------|
D|7h9------------------------------------------------------------------------|
A|---------------------------------------------------------------------------|
E|---------------------------------------------------------------------------|

The ending is tremolo picked.
e|---------------------------------------------------------------------------|
B|-8s10-10-10-12-10-10-10-10-8-8-8-8-8-8-8s10-10-10-12-10-10-10-10-8-8-8s15t-|
G|---------------------------------------------------------------------------|
D|---------------------------------------------------------------------------|
A|---------------------------------------------------------------------------|
E|---------------------------------------------------------------------------|

repeating
e|---------------------------------------------------------------------------|
B|---------------------------------------------------------------------------|
G|---------------------------------------------------------------------------|
D|-----7-7-7s5---------------------------------------------------------------|
A|-7h10----------------------------------------------------------------------|
E|---------------------------------------------------------------------------|
            
Submit corrections


        Once Was One lessons Hard to play? Try these video lessons and learn fast Once Was One lessons
        
↑ Back to top | Tablatures and chords for acoustic guitar and electric guitar, ukulele, drums are parodies/interpretations of the original songs. You may use it for private study, scholarship, research or language learning purposes only