» » »

Portugal The Man - Chicago Tabs

Artists:  A B C D E F G H I J K L M N O P Q R S T U V W X Y Z # 

Chicago Tabs

(ver. 1) Click to play this song!
Portugal The Man
 Rating:
4.2/5 (5 votes)

 Chicago lessons Tabs too difficult? Try these video lessons and learn fast
 
                the whole songs pretty fuzzy but this is wat i came up with
theres a bunch of this and theres not really an order to it( sounds good highly 
and robotic sounding)

|------|     during the verse its a bit muted. the bass does most of the work in this song
|------|
|---555|
|---xxx|
|-0-333|
|------|

every once in a while they replace the last chord with this
|--|
|--|
|-6|
|-x|
|-4|
|--|

and break with this note(let it ring)
|--|
|--|
|-2|
|-2|
|-0|
|--|

towards the end of the song a second guitar comes in
|-----------|
|-10-10-8--8|
|-----------|
|---7--7--7-|
|-----------|
|-----------|

the rest is mainly piano except for the short interlude at the end
|------------------------------------------------------|
|------------------------------------------------------|
|------5------0-2-4-2-0--------2-2---------------------|       x2
|---3s7-7---2*-----------2---3*--3-3------2--2---------|
|-0*-----------------------------------3*---3--3-------|
|------------------------------------------------------|
end on this
|---
|-0*
|-0*
|-2*
|-3*
|---
hope this was some help
            
Submit corrections


        Chicago lessons Hard to play? Try these video lessons and learn fast Chicago lessons
        
↑ Back to top | Tablatures and chords for acoustic guitar and electric guitar, ukulele, drums are parodies/interpretations of the original songs. You may use it for private study, scholarship, research or language learning purposes only