» » »

Portugal The Man - Atomic Man Tabs

Artists:  A B C D E F G H I J K L M N O P Q R S T U V W X Y Z # 

Atomic Man Tabs

(ver. 1) Click to play this song!
Portugal The Man
 Rating:
4/5 (4 votes)

 Atomic Man lessons Tabs too difficult? Try these video lessons and learn fast
 
                B# Power Chord, A# Power Chord, G# Power Chord, B# Power Chord

    B#           A#           G#

e|---------------------------------------------------------------------------| 
B|--8------------------------------------------------------------------------|
G|--8------------------------------------------------------------------------|
D|--8------------8------------6----------------------------------------------|
A|--6------------8------------6----------------------------------------------|
E|---------------6------------4----------------------------------------------|


Lead Electric (Intro):

e|---------------------------------------------------------------------------| (x2)
B|---------------------------------------------------------------------------|
G|---------------------------------------------------------------------------|
D|-8-8-8-8--8---6-6--6--6----------------------------------------------------|
A|------------------------8---6-6-6-6-6---6-6---8----------------------------|
E|--------------------------------------------9----9-6-----------------------|


Verse:

e|---------------------------------------------------------------------------| (x4)
B|---------------------------------------------------------------------------|
G|---------------------------------------6-----------------------------------|
D|-----------------------------------6-8---8-8-------------------------------|
A|-------------------------------6-8-----------------------------------------|
E|-6-6-9-6-6---11*-6-6-6-9-6-6-------------------9-6-6-6-6-------------------|            
Submit corrections


        Atomic Man lessons Hard to play? Try these video lessons and learn fast Atomic Man lessons
        
↑ Back to top | Tablatures and chords for acoustic guitar and electric guitar, ukulele, drums are parodies/interpretations of the original songs. You may use it for private study, scholarship, research or language learning purposes only