Home » P » Porcupine Tree »

Porcupine Tree - Sleep Together Tabs

Artists:  A B C D E F G H I J K L M N O P Q R S T U V W X Y Z # 

Sleep Together Tabs

(ver. 2) Click to play this song!
Porcupine Tree
[Intro/Verse 1]
No guitar


[Chorus 1]
    Q       E.    S S S E   E   S S      Q       E.    S S S E   E   S S   (x4)
e|------------------------------------|------------------------------------|
B|o-3-------3-------------------------|-----------------------------------o|
G|--2-------2-------------------------|--2-------2-----2-2-2-2---2---2-2---|
D|--0-------0-----0-1-1-1---1---1-1---|--2-------2-----2-2-2-2---2---2-2---|
A|o-0-------0-----0-1-1-1---1---1-1---|--0-------0-----0-0-0-0---0---0-0--o|
D|--0-------0-----0-1-1-1---1---1-1---|------------------------------------|


[Post-Chorus 1]
    Q       E.    S S S E   E   S S      Q       E.    S S S E   E   S S   (x3)
e|------------------------------------|------------------------------------|
B|o-3-------3-------------------------|-----------------------------------o|
G|--2-------2-------------------------|--2-------2-----2-2-2-2---2---2-2---|
D|--0-------0-----0-1-1-1---1---1-1---|--2-------2-----2-2-2-2---2---2-2---|
A|o-0-------0-----0-1-1-1---1---1-1---|--0-------0-----0-0-0-0---0---0-0--o|
D|--0-------0-----0-1-1-1---1---1-1---|------------------------------------|

    Q       E.    S S S E   E   S S      -
e|------------------------------------|------------------------------------|
B|--3-------3-------------------------|------------------------------------|
G|--2-------2-------------------------|--2---------------------------------|
D|--0-------0-----0-1-1-1---1---1-1---|--2---------------------------------|
A|--0-------0-----0-1-1-1---1---1-1---|--0---------------------------------|
D|--0-------0-----0-1-1-1---1---1-1---|------------------------------------|


[Verse 2]
No guitar


[Chorus 2]
    Q       E.    S S S E   E   S S      Q       E.    S S S E   E   S S   (x4)
e|------------------------------------|------------------------------------|
B|o-3-------3-------------------------|-----------------------------------o|
G|--2-------2-------------------------|--2-------2-----2-2-2-2---2---2-2---|
D|--0-------0-----0-1-1-1---1---1-1---|--2-------2-----2-2-2-2---2---2-2---|
A|o-0-------0-----0-1-1-1---1---1-1---|--0-------0-----0-0-0-0---0---0-0--o|
D|--0-------0-----0-1-1-1---1---1-1---|------------------------------------|


[Post-Chorus 2]
    Q       E.    S S S E   E   S S      Q       E.    S S S E   E   S S   (x3)
e|------------------------------------|------------------------------------|
B|o-3-------3-------------------------|-----------------------------------o|
G|--2-------2-------------------------|--2-------2-----2-2-2-2---2---2-2---|
D|--0-------0-----0-1-1-1---1---1-1---|--2-------2-----2-2-2-2---2---2-2---|
A|o-0-------0-----0-1-1-1---1---1-1---|--0-------0-----0-0-0-0---0---0-0--o|
D|--0-------0-----0-1-1-1---1---1-1---|------------------------------------|

    Q       E.    S S S E   E   S S      -
e|------------------------------------|------------------------------------|
B|--3-------3-------------------------|------------------------------------|
G|--2-------2-------------------------|--2---------------------------------|
D|--0-------0-----0-1-1-1---1---1-1---|--2---------------------------------|
A|--0-------0-----0-1-1-1---1---1-1---|--0---------------------------------|
D|--0-------0-----0-1-1-1---1---1-1---|------------------------------------|


[Interlude/Outro]
- You see a long rest before you. Guitar re-enters at 5:20.

   (S)E   E   E   E   E   E   E   S     +S E   E   E   E   E   E   E   S
e|----------------12--------------12--|----------------12--------------12--|
B|--------11--10----------11--10------|--------11--10----------11--10------|
G|----9---------------9---------------|----9---------------9---------------|
D|------------------------------------|------------------------------------|
A|------------------------------------|------------------------------------|
D|------------------------------------|------------------------------------|

   +S E   E   E   E   E   E   E   S     +S E   E   E   E   E   E   E   S
e|----------------10--------------10--|----------------11--------------11--|
B|--------11--10----------11--10------|--------11--10----------11--10------|
G|----7---------------7---------------|----8---------------8---------------|
D|------------------------------------|------------------------------------|
A|------------------------------------|------------------------------------|
D|------------------------------------|------------------------------------|

   +S E   E   E   E   E   E   E   S     +S E   E   E   E   E   E   E   S
e|----------------9---------------9---|----------------9---------------9---|
B|--------11--10----------11--10------|--------11--10----------11--10------|
G|------------------------------------|------------------------------------|
D|----11--------------11--------------|----11--------------11--------------|
A|------------------------------------|------------------------------------|
D|------------------------------------|------------------------------------|

   +S E   E   E   E   E   E   E   S     +S E   E   E   E   E  (S)(Q)
e|----------------10--------------10--|----------------11------------------|
B|--------11--10----------11--10------|--------11--10----------------------|
G|----7---------------7---------------|----8---------------8---------------|
D|------------------------------------|------------------------------------|
A|------------------------------------|------------------------------------|
D|------------------------------------|------------------------------------|

   (S)E   E   E   E   E   E   E   S     +S E   E   E   E   E   E   E   S
e|----------------12--------------12--|----------------12--------------12--|
B|--------11--10----------11--10------|--------11--10----------11--10------|
G|----9---------------9---------------|----9---------------9---------------|
D|------------------------------------|------------------------------------|
A|------------------------------------|------------------------------------|
D|------------------------------------|------------------------------------|

   +S E   E   E   E   E   E   E   S     +S E   E   E   E   E   E   E   S
e|----------------10--------------10--|----------------11--------------11--|
B|--------11--10----------11--10------|--------11--10----------11--10------|
G|----7---------------7---------------|----8---------------8---------------|
D|------------------------------------|------------------------------------|
A|------------------------------------|------------------------------------|
D|------------------------------------|------------------------------------|

   +S E   E   E   E   E   E   E   S     +S E   E   E   E   E   E   E   S
e|----------------9---------------9---|----------------9---------------9---|
B|--------11--10----------11--10------|--------11--10----------11--10------|
G|------------------------------------|------------------------------------|
D|----11--------------11--------------|----11--------------11--------------|
A|------------------------------------|------------------------------------|
D|------------------------------------|------------------------------------|

   +S E   E   E   E   E   E   E   S     +S E   E   E   E   E   E   E   S
e|----------------10--------------10--|----------------11--------------11--|
B|--------11--10----------11--10------|--------11--10----------11--10------|
G|----7---------------7---------------|----8---------------8---------------|
D|------------------------------------|------------------------------------|
A|------------------------------------|------------------------------------|
D|------------------------------------|------------------------------------|

   +S E   E   E   E   E   E   E   S     +S E   E   E   E   E   E   E   S
e|----------------12--------------12--|----------------12--------------12--|
B|--------11--10----------11--10------|--------11--10----------11--10------|
G|----9---------------9---------------|----9---------------9---------------|
D|------------------------------------|------------------------------------|
A|------------------------------------|------------------------------------|
D|------------------------------------|------------------------------------|

    Q       E.    S S S E   E   S S      Q       E.    S S S E   E   S S   (x7)
e|------------------------------------|------------------------------------|
B|o-3-------3-------------------------|-----------------------------------o|
G|--2-------2-------------------------|--2-------2-----2-2-2-2---2---2-2---|
D|--0-------0-----0-1-1-1---1---1-1---|--2-------2-----2-2-2-2---2---2-2---|
A|o-0-------0-----0-1-1-1---1---1-1---|--0-------0-----0-0-0-0---0---0-0--o|
D|--0-------0-----0-1-1-1---1---1-1---|------------------------------------|

    Q       E.    S S S E   E   S S      -
e|------------------------------------|------------------------------------|
B|--3-------3-------------------------|------------------------------------|
G|--2-------2-------------------------|--2---------------------------------|
D|--0-------0-----0-1-1-1---1---1-1---|--2---------------------------------|
A|--0-------0-----0-1-1-1---1---1-1---|--0---------------------------------|
D|--0-------0-----0-1-1-1---1---1-1---|------------------------------------|            
Submit corrections

↑ Back to top | Tablatures and chords for acoustic guitar and electric guitar, ukulele, drums are parodies/interpretations of the original songs. You may use it for private study, scholarship, research or language learning purposes only