Home » P » Porcupine Tree »

Porcupine Tree - Shesmovedon Tabs

Artists:  A B C D E F G H I J K L M N O P Q R S T U V W X Y Z # 

Shesmovedon Tabs

(ver. 1) Click to play this song!
Porcupine Tree
TECH NOTE: 
there is also an electric ritmic guitar with wha, that follows more or less the same path of the acoustic part. The final solo (always with wha) is not transcribed here because of his lenght. But it will be coming soon... (if I got the time)
Used chords 
Em Cmaj7 D  A  C  G  D# 
0      0     (3) 0  0  3   6 
0     (3)     2  2  1  3   8 
0      0      3  2  0  4   8
2      2      0  2  2  5   8
2      3      0  0  3  5   6
0      x      x  x   x  3   6
Main melodic ritmic line 
-----------------------------------------------------
-----------------------------------------------------
-----------------------------------------------4---4-
------4---4^5----2---2-----------4---4^5----2--------
----------------------------------------------------- 
-0-----------0---------------0----------0------------
-----------------------------------------------4---2-------------0---0--- 
------4---4^5----2---2-----------4---4^5----2--------5-4---0-0^1---1---1-
-0-----------0---------------0----------0-------------------------------- 
 Main chord progression ("She changes everytime you look...", final solo)
Em - Cmaj7 - D - Cmaj7 x 2 
Interlude ("Shesmovedon....Shesmovedon...")
A - C x 2 Em* - G x 2 D* - D# - Em 

*= second position (high)
            
Submit corrections

↑ Back to top | Tablatures and chords for acoustic guitar and electric guitar, ukulele, drums are parodies/interpretations of the original songs. You may use it for private study, scholarship, research or language learning purposes only