Home » P » Porcupine Tree »

Porcupine Tree - Sleep Together Bass

Artists:  A B C D E F G H I J K L M N O P Q R S T U V W X Y Z # 

Sleep Together Bass

(ver. 1) Click to play this song!
Porcupine Tree
[Intro/Verse 1]
No bass

[Chorus 1]
    E   E   E   E   E   E   E   E        E   E   E.    S S S E   E   E     (x4)
G|------------------------------------|------------------------------------|
D|o-----------------------------------|-----------------------------------o|
A|o-----------------------------------|-----------------------------------o|
D|--0---0---0---0---1---1---1---1-----|--7---7---7-----5h7-7-7---5---7-----|


[Post-Chorus 1]
    E   E   E   E   E   E   E   E        E   E   E.    S S S E   E   E     (x3)
G|------------------------------------|------------------------------------|
D|o-----------------------------------|-----------------------------------o|
A|o-----------------------------------|-----------------------------------o|
D|--0---0---0---0---1---1---1---1-----|--7---7---7-----5h7-7-7---5---7-----|

    E   E   E   E   E   E   E   E
G|------------------------------------|
D|------------------------------------|
A|------------------------------------|
D|--0---0---0---0---1---1---1---1-----|

    S(S)E   S S(S)E   S S S S S S S      S(S)E   S S(S)E   S S S S S S S   (x2)
G|------------------------------------|------------------------------------|
D|o-----------------------------------|-----------------------------------o|
A|o-0---0---3-0---0---3-0-0-3-0-0-3---|--0---0---3-0---0---3-0-0-3-0-0-3--o|
D|------------------------------------|------------------------------------|


[Verse 2]
    S(S)E   S S(S)E   S S S S S S S      S(S)E   S S(S)E   S S S S S S S   (x5)
G|------------------------------------|------------------------------------|
D|o-----------------------------------|-----------------------------------o|
A|o-0---0---3-0---0---3-0-0-3-0-0-3---|--0---0---3-0---0---3-0-0-3-0-0-3--o|
D|------------------------------------|------------------------------------|


[Chorus 2]
    E   E   E   E   E   E   E   E        E   E   E.    S S S E   E   E     (x4)
G|------------------------------------|------------------------------------|
D|o-----------------------------------|-----------------------------------o|
A|o-----------------------------------|-----------------------------------o|
D|--0---0---0---0---1---1---1---1-----|--7---7---7-----5h7-7-7---5---7-----|


[Post-Chorus 2]
    E   E   E   E   E   E   E   E        E   E   E.    S S S E   E   E
G|------------------------------------|------------------------------------|
D|------------------------------------|------------------------------------|
A|------------------------------------|------------------------------------|
D|--0---0---0---0---1---1---1---1-----|--7---7---7-----5h7-7-7---5---7-----|

    E   E   E   E   E   E   E   E        E   E   E.    S S S E   S S S  S
G|------------------------------------|-------------------------------------|
D|------------------------------------|-------------------------------------|
A|------------------------------------|-------------------------------------|
D|--0---0---0---0---1---1---1---1-----|--7---7---7-----5h7-7-7---5h7-10-7---|

    E   E   E   E   E   E   E   E        E   E   E.    S S S E   E   E
G|------------------------------------|------------------------------------|
D|------------------------------------|------------------------------------|
A|------------------------------------|------------------------------------|
D|--0---0---0---0---1---1---1---1-----|--7---7---7-----5h7-7-7---5---7-----|

    E   E   E   E   E   E   E   E        -
G|------------------------------------|------------------------------------|
D|------------------------------------|------------------------------------|
A|------------------------------------|--0---------------------------------|
D|--0---0---0---0---1---1---1---1-----|------------------------------------|


[Interlude/Outro]
- A long rest lies ahead of you. Bass re-enters at 5:47.

    S(S)E   S S(S)E   S S S S S S S      S(S)E   S S(S)E   S S S S S S S   (x5)
G|------------------------------------|------------------------------------|
D|o-----------------------------------|-----------------------------------o|
A|o-0---0---3-0---0---3-0-0-3-0-0-3---|--0---0---3-0---0---3-0-0-3-0-0-3--o|
D|------------------------------------|------------------------------------|

    E   E   E   E   E   E   E   E        E   E   E.    S S S E   E   E     (x7)
G|------------------------------------|------------------------------------|
D|o-----------------------------------|-----------------------------------o|
A|o-----------------------------------|-----------------------------------o|
D|--0---0---0---0---1---1---1---1-----|--7---7---7-----5h7-7-7---5---7-----|

    E   E   E   E   E   E   E   E        -
G|------------------------------------|------------------------------------|
D|------------------------------------|------------------------------------|
A|------------------------------------|--0---------------------------------|
D|--0---0---0---0---1---1---1---1-----|------------------------------------|            
Submit corrections

↑ Back to top | Tablatures and chords for acoustic guitar and electric guitar, ukulele, drums are parodies/interpretations of the original songs. You may use it for private study, scholarship, research or language learning purposes only