Home » P » Porcupine Tree »

Porcupine Tree - Pure Narcotic Chords

Artists:  A B C D E F G H I J K L M N O P Q R S T U V W X Y Z # 

Pure Narcotic Chords

(ver. 3) Click to play this song!
Porcupine Tree
Intro & Verse (Dsus2  Em7  Cadd9)
Dsus2                 Em7     Cadd9
You keep me waiting
Dsus2                        Em7            Cadd9
You keep me alone in a room full of friends
Dsus2          Em7   Cadd9
You keep me hating
Dsus2              Em7               Cadd9
You keep me listening to the Bends

Bridge :

Bb6/9
     No amount of pointless days
Bb6/9                      
     Can make this go away

Verse (Dsus2  Em7 Cadd9) 

You have me on my knees
You have me listless and deranged
You have me in your pocket
You have me distant and estranged

Bridge (Bb6/9)

No narcotics in my brain
Can make this go away

Chorus


A               Am6b5               F7M            Em
 I'm sorry that, I'm sorry that I'm not like you
 
A               Am6b5               F7M            Em
 I worry that I don't act the way you'd want me to

A               Am6b5               F7M            E
I'm sorry that, I'm sorry that I'm not like you

Verse : (Dsus2 Em7 Cadd9)

You find me wanting You find me bloodless but inspired
You find me out You find me hallucinating fire

Bridge : (Bb6/9)

No narcotics in my brain
Can make this go away

Chorus


A               Am6b5               F7M            Em
 I'm sorry that, I'm sorry that I'm not like you
 
A               Am6b5               F7M            Em
 I worry that I don't act the way you'd want me to

A               Am6b5               F7M            E
I'm sorry that, I'm sorry that I'm not like you

Solo : all chords in one mesure

D G Bb6/9 Cadd9

After solo : Descending : ( D Am6 D9 D6/9 )
   

E |--2----2-----------|
B |--3----2----5---5--|  
G |--2----2----5---4--|
D |--0----1----4---4--|
A |------------5---5--|
E |-------------------|

or
E |-------------------|
B |--7----7----5---5--|  
G |--7----6----5---4--|
D |--7----7----4---4--|
A |--5----6----5---5--|
E |-------------------|


A                             Am6b5                             F7M    Em
Have we ever been here before?     Running headlong at the floor

A                                     Am6b5                             F7M    E
Leave me dreaming on a railway track        Wrap me up and send me back


End :

D   G   Bb6/9  Cadd9



Chords :

     A  Dsus2  F7M   Am6b5 Em   E   Cadd9  G     Bb6/9     Em7   
E |--0----0-----0-------2---0----0----0(3)-3------1--------0---|
B |--2----3-----1-------1---0----0----3----3------1--------3---|
G |--2----2-----2-------2---0----1----0----0------0--------0---|
D |--2----0-----3-------1---2----2----2----0------0--------2---|
A |--0-----------------(0)--2----2----3----2------1--------2---|
E |-------------------------0----0---------3---------------0---|            
Submit corrections

↑ Back to top | Tablatures and chords for acoustic guitar and electric guitar, ukulele, drums are parodies/interpretations of the original songs. You may use it for private study, scholarship, research or language learning purposes only