Home » P » Porcupine Tree »

Porcupine Tree - Pure Narcotic Bass

Artists:  A B C D E F G H I J K L M N O P Q R S T U V W X Y Z # 

Pure Narcotic Bass

(ver. 1) Click to play this song!
Porcupine Tree
-------------------------------------------------------------------------------
			     Pure Narcotic - Porcupine Tree
-------------------------------------------------------------------------------
Tuning: standard E

i have not tabed some slight variations of the bassline but they're very simple

repeat as needed
G|--------|
D|----4/5-|
A|--5-----|
E|--------|

then
G|--------------------|
D|-3--3---------------|
A|-----3--------------|
E|------1--3----------|

Chorus
G|------------------------------------|
D|------------------------------------|
A|---------4--6-6--6\-----------------|
E|-5-5---6-----------1--1-1--1-0-3----|

bridge repeat as needed
G|----------------------------------------|
D|---7\-----------------------------------|
A|-5-5\-----------------------------------|
E|-------3-3--1-1--3--3-3-5-3-------------|

then
G|---------------------------------------|
D|---------------------------------------|
A|-5-5-5---6-6-6---9-9-9---12------------|
E|---------------------------------------|

back to chorus

end on D 3rd string

| /  slide up
| \  slide down
| h  hammer-on
| p  pull-off
| ~  vibrato
| +  harmonic
| x  Mute note
===============================================================================
            
Submit corrections

↑ Back to top | Tablatures and chords for acoustic guitar and electric guitar, ukulele, drums are parodies/interpretations of the original songs. You may use it for private study, scholarship, research or language learning purposes only