Home » P » Placebo »

Placebo - Twenty Years Tabs

Artists:  A B C D E F G H I J K L M N O P Q R S T U V W X Y Z # 

Twenty Years Tabs

(ver. 1) Click to play this song!
Placebo
-------------------------------------------------------------------------------
-------------------------------------------------------------------------------

Tuning:EADGBe

Intro
Guitar 1 (X2)
e|-----------------------------|
B|-----------------------------|
G|-----------------------------|
D|---10---6---10---10---6---10-|
A|-8----8---8----8----8---8----|
E|-----------------------------|

e|--------------------------|
B|--------------------------|
G|--------------------------|
D|---8---6---8---8---6---10-|
A|-6---6---6---6---6---6----|
E|--------------------------|

e|-------------------------|
B|-------------------------|
G|-----------------------5-|
D|---6---6---6---6---6-----|
A|-4---4---4---4---4---4---|
E|-------------------------|

e|-------------------------------|
B|-------------------------------|
G|-------------------------------|
D|---5---6-5---6-5---6-5---6-5---|
A|-3---3-----3-----3-----3-----3-|
E|-------------------------------|

Verse 1
Guitar 1 (X2)
(There are twenty years to go, twenty ways to know...)
e|-----------------------------|
B|-----------------------------|
G|-----------------------------|
D|---10---6---10---10---6---10-|
A|-8----8---8----8----8---8----|
E|-----------------------------|

e|--------------------------|
B|--------------------------|
G|--------------------------|
D|---8---6---8---8---6---10-|
A|-6---6---6---6---6---6----|
E|--------------------------|

e|-------------------------|
B|-------------------------|
G|-----------------------5-|
D|---6---6---6---6---6-----|
A|-4---4---4---4---4---4---|
E|-------------------------|

e|-------------------------------|
B|-------------------------------|
G|-------------------------------|
D|---5---6-5---6-5---6-5---6-5---|
A|-3---3-----3-----3-----3-----3-|
E|-------------------------------|

Pre chorus
Guitar 1
(Thems the breaks, for we designer fakes ...)
e|-------------------------------|
B|-------------------------------|
G|-------------------------------|
D|-------6-5---6-5---6-5---6-5---|
A|-3r--------3-----3-----3-----3-|
E|-------------------------------|
r=let ring

Verse 2
Guitar 1 (X2)
(There are twenty years to go, the faithful and the low...)
e|-----------------------------|
B|-----------------------------|
G|-----------------------------|
D|---10---6---10---10---6---10-|
A|-8----8---8----8----8---8----|
E|-----------------------------|

e|--------------------------|
B|--------------------------|
G|--------------------------|
D|---8---6---8---8---6---10-|
A|-6---6---6---6---6---6----|
E|--------------------------|

e|-------------------------|
B|-------------------------|
G|-----------------------5-|
D|---6---6---6---6---6-----|
A|-4---4---4---4---4---4---|
E|-------------------------|

e|-------------------------------|
B|-------------------------------|
G|-------------------------------|
D|---5---6-5---6-5---6-5---6-5---|
A|-3---3-----3-----3-----3-----3-|
E|-------------------------------|

Guitar 2
e|-------------------------|
B|-------------------------|
G|-10-----8------6------5--|X2
D|-10-----8------6------5--|
A|-8r-----6r-----4r-----3r-|
E|-------------------------|
r= let ring

Pre chorus
Guitar 1
(Thems the breaks, for we designer fakes ...)
e|-------------------------------|
B|-------------------------------|
G|-------------------------------|
D|-------6-5---6-5---6-5---6-5---|
A|-3r--------3-----3-----3-----3-|
E|-------------------------------|
r=let ring

e|-------------------------|
B|-------------------------|
G|-------------------------|X3
D|-6-5---6-5---6-5---6-5---|
A|-----3-----3-----3-----3-|
E|-------------------------|

Guitar 2
e|-------------------------|
B|-------------------------|
G|-10-----8------6------5--|X2
D|-10-----8------6------5--|
A|-8r-----6r-----4r-----3r-|
E|-------------------------|
r= let ring

Verse 3
Guitar 1 (X2)
(There are twenty years to go, a golden age I know...)
e|-----------------------------|
B|-----------------------------|
G|-----------------------------|
D|---10---6---10---10---6---10-|
A|-8----8---8----8----8---8----|
E|-----------------------------|

e|--------------------------|
B|--------------------------|
G|--------------------------|
D|---8---6---8---8---6---10-|
A|-6---6---6---6---6---6----|
E|--------------------------|

e|-------------------------|
B|-------------------------|
G|-----------------------5-|
D|---6---6---6---6---6-----|
A|-4---4---4---4---4---4---|
E|-------------------------|

e|-------------------------------|
B|-------------------------------|
G|-------------------------------|
D|---5---6-5---6-5---6-5---6-5---|
A|-3---3-----3-----3-----3-----3-|
E|-------------------------------|

Pre chorus
(That's the end and that's the start of it, that's the whole and that's the part of it...)
Guitar 1
e|-------------------------|
B|-------------------------|
G|-------------------------|X6
D|-6-5---6-5---6-5---6-5---|
A|-----3-----3-----3-----3-|
E|-------------------------|

Guitar 2
e|-------------------------|
B|-------------------------|
G|-10-----8------6------5--|X3
D|-10-----8------6------5--|
A|-8r-----6r-----4r-----3r-|
E|-------------------------|
r= let ring

Chorus/Outro
Guitar 1 (X6)
e|-----------------------------|
B|-----------------------------|
G|-----------------------------|
D|---10---6---10---10---6---10-|
A|-8----8---8----8----8---8----|
E|-----------------------------|

e|--------------------------|
B|--------------------------|
G|--------------------------|
D|---8---6---8---8---6---10-|
A|-6---6---6---6---6---6----|
E|--------------------------|

e|-------------------------|
B|-------------------------|
G|-----------------------5-|
D|---6---6---6---6---6-----|
A|-4---4---4---4---4---4---|
E|-------------------------|

e|-------------------------------|
B|-------------------------------|
G|-------------------------------|
D|---5---6-5---6-5---6-5---6-5---|
A|-3---3-----3-----3-----3-----3-|
E|-------------------------------|

Guitar 2
e|-------------------------|
B|-------------------------|
G|-10-----8------6------5--|X6
D|-10-----8------6------5--|
A|-8r-----6r-----4r-----3r-|
E|-------------------------|
r= let ring
            
Submit corrections

↑ Back to top | Tablatures and chords for acoustic guitar and electric guitar, ukulele, drums are parodies/interpretations of the original songs. You may use it for private study, scholarship, research or language learning purposes only