» » »

Placebo - Meds Tabs

Artists:  A B C D E F G H I J K L M N O P Q R S T U V W X Y Z # 

Meds Tabs

(ver. 1) Click to play this song!
Placebo
 Rating:
4.2/5 (5 votes)

 Meds lessons Tabs too difficult? Try these video lessons and learn fast
 
                Title : Meds
Artist : Placebo
Album : Meds 2006
Composer : Brain Molko/Placebo

I came up with two different way of playing this amazing song. The first one - guitar tuning : Normal.
The second way is by tuning the guitar to placebo's tuning (F A# D# G# C C)
*No timing. Listen to the song first.

**** 1 *****
____________




Tuning : Normal (E A D G B e)

* - Sturmming quickly up and down

Intro (Guitar 2 - Accustic) :

e |------------------------------------------------------------ \
B |------------------------------------------------------------  \
G |---9-9-9-9-9-9-9-9-----------------------5-5-5-5-5-5-5-5-5--   \
D |---9-9-9-9-9-9-9-9---5-5-5-5-5-5-5-5-5---5-5-5-5-5-5-5-5-5--    \ 
A |---7-7-7-7-7-7-7-7---5-5-5-5-5-5-5-5-5---3-3-3-3-3-3-3-3-3--     \ 
E |---------------------3-3-3-3-3-3-3-3-3----------------------      \ 
                     *                   *                   *        \   X2
                                                                      /
e |----------------------------                                      /
B |----------------------------                                     / 
G |---4-4-4-4-4-4-4-4-4--------                                    /
D |---4-4-4-4-4-4-4-4-4--------                                   /
A |---2-2-2-2-2-2-2-2-2--------                                  /
E |----------------------------                                 /


Verse/Chorus (Guitar 1 - Distorted)



e |------------------------------------------------------------ \
B |------------------------------------------------------------  \
G |---9-9-9-9-9-9-9-9-----------------------5-5-5-5-5-5-5-5-5--   \
D |---9-9-9-9-9-9-9-9---5-5-5-5-5-5-5-5-5---5-5-5-5-5-5-5-5-5--    \ 
A |---7-7-7-7-7-7-7-7---5-5-5-5-5-5-5-5-5---3-3-3-3-3-3-3-3-3--     \ 
E |---------------------3-3-3-3-3-3-3-3-3----------------------      \ 
                                                                      \   X2
                                                                      /
e |----------------------------                                      /
B |----------------------------                                     / 
G |---4-4-4-4-4-4-4-4-4--------                                    /
D |---4-4-4-4-4-4-4-4-4--------                                   /
A |---2-2-2-2-2-2-2-2-2--------                                  /
E |----------------------------                                 /


Interclude 

    (And the sex, and the drugs...)
e |--------------------------------------------|
B |-10-10-10-10-11-11-11-10-10-10-10-13-13-13--|
G |-11-11-11-11-12-12-12-11-11-11-11-14-14-14--|
D |--x--x--x--x--x--x--x--x--x--x--x--x--x--x--|
A |--9--9--9--9-10-10-10--9--9--9--9-12-12-12--|
E |--------------------------------------------|

Outro (Guitar 2 - clean)


e |------------------------------------------------------------ 
B |------------------------------------------------------------  
G |---9-9-9-9-9-9-9-9-----------------------5-5-5-5-5-5-5-5-5--   
D |---9-9-9-9-9-9-9-9---5-5-5-5-5-5-5-5-5---5-5-5-5-5-5-5-5-5--     
A |---7-7-7-7-7-7-7-7---5-5-5-5-5-5-5-5-5---3-3-3-3-3-3-3-3-3--      
E |---------------------3-3-3-3-3-3-3-3-3----------------------       
                     *                   *                   *
                                                                      
e |----------------------------                                      
B |----------------------------                                      
G |---4-4-4-4-4-4-4-4-4--------                                    
D |---4-4-4-4-4-4-4-4-4--------                                   
A |---2-2-2-2-2-2-2-2-2--------                                  
E |----------------------------                                 






*****  2  ******
________________


Tuning : (F A# D# G# C C)

* - Sturmming quickly up and down

Guitar 1 : Accustic
C  |--------------------------------------------------------------------------------------
C  |--------------------------------------------------------------------------------------
G# |-------6-6-6-6-6-6-6-6----6-6-6-6-6-6-6-6-----6-6-6-6-6-6-6-6----6-6-6-6-6-6-6-6------  X2
D# |-------6-6-6-6-6-6-6-6----6-6-6-6-6-6-6-6-----6-6-6-6-6-6-6-6----6-6-6-6-6-6-6-6------
A# |-------4-4-4-4-4-4-4-4----4-4-4-4-4-4-4-4-----4-4-4-4-4-4-4-4----4-4-4-4-4-4-4-4------
F  |--------------------------0-0-0-0-0-0-0-0-----5-5-5-5-5-5-5-5----4-4-4-4-4-4-4-4------  
                         *                  *                   *                  *


Guitar 2 : Distorted

C  |--------------------------------------------------------------------------------------
C  |--------------------------------------------------------------------------------------
G# |-------6-6-6-6-6-6-6-6----6-6-6-6-6-6-6-6-----6-6-6-6-6-6-6-6----6-6-6-6-6-6-6-6------  X2
D# |-------6-6-6-6-6-6-6-6----6-6-6-6-6-6-6-6-----6-6-6-6-6-6-6-6----6-6-6-6-6-6-6-6------
A# |-------4-4-4-4-4-4-4-4----4-4-4-4-4-4-4-4-----4-4-4-4-4-4-4-4----4-4-4-4-4-4-4-4------
F  |--------------------------0-0-0-0-0-0-0-0-----5-5-5-5-5-5-5-5----4-4-4-4-4-4-4-4------  

Then:

C  |--------------------------------------------|
C  |-11-11-11-11-12-12-12-11-11-11-11-14-14-14--|
G# |-12-12-12-12-13-13-13-12-12-12-12-15-15-15--|
D# |--x--x--x--x--x--x--x--x--x--x--x--x--x--x--|
A# |-10-10-10-10-11-11-11-10-10-10-10-13-13-13--|
F  |--------------------------------------------|


Guitar 1 : Accustic
C  |--------------------------------------------------------------------------------------
C  |--------------------------------------------------------------------------------------
G# |-------6-6-6-6-6-6-6-6----6-6-6-6-6-6-6-6-----6-6-6-6-6-6-6-6----6-6-6-6-6-6-6-6------  X2
D# |-------6-6-6-6-6-6-6-6----6-6-6-6-6-6-6-6-----6-6-6-6-6-6-6-6----6-6-6-6-6-6-6-6------
A# |-------4-4-4-4-4-4-4-4----4-4-4-4-4-4-4-4-----4-4-4-4-4-4-4-4----4-4-4-4-4-4-4-4------
F  |--------------------------0-0-0-0-0-0-0-0-----5-5-5-5-5-5-5-5----4-4-4-4-4-4-4-4------  
                         *                  *                   *                  *


That's it, hope you guys enjoyed it. This is a great song form the placebo's new album "Meds".
            
Submit corrections


        Meds lessons Hard to play? Try these video lessons and learn fast Meds lessons
        
↑ Back to top | Tablatures and chords for acoustic guitar and electric guitar, ukulele, drums are parodies/interpretations of the original songs. You may use it for private study, scholarship, research or language learning purposes only