Home » P » Placebo »

Placebo - Special Needs Tabs

Artists:  A B C D E F G H I J K L M N O P Q R S T U V W X Y Z # 

Special Needs Tabs

(ver. 1) Click to play this song!
Placebo
PROPS GO TO: Frankenchrist

This is what I came up with for this song.
You can play it in standard tuning, which is a bonus.


e--------------------------------------------------------|-----------
b--------------------------------------------------------|-----------
g--------------------------------------------------------|-----------
D---------3-3-3-3-3h4-4----------4--4--------------------|-----------
A-----------------------------------------4-4-4-4-4-4----|-----------
E---2-2--------------------2-2---------------------------|---2-2----
Intro/Verse/Outro                                         end.1


e------------------------------
b------------------------------
g---8-8-8-8----11-11-11-11-----
D---8-8-8-8----11-11-11-11-----
A---6-6-6-6----9--9--9--9------
E------------------------------

e----------------------------------------------------------
b----------------------------------------------------------
g---10-10-10-10h11-11----11-11-11\6-6-6-6------------------
D----------------------------------------------------------
A----------------------------------------------------------
E----------------------------------------------------------
overdub (played when brian strums F#)

Chorus


e------------------
b------------------
g---11-11-11-11----
D---11-11-11-11----
A---9--9--9--9-----
E------------------
Interlude


'Special Needs' 

Intro x4
Verse x4
Chorus x2
Verse x4
Chorus x4
Intro x8
Interlude x4
Chorus x4
Outro (with end.1) x4
            
Submit corrections

↑ Back to top | Tablatures and chords for acoustic guitar and electric guitar, ukulele, drums are parodies/interpretations of the original songs. You may use it for private study, scholarship, research or language learning purposes only