Home » P » Placebo »

Placebo - Bitter End Tabs

Artists:  A B C D E F G H I J K L M N O P Q R S T U V W X Y Z # 

Bitter End Tabs

(ver. 1) Click to play this song!
Placebo
-------------------------------------------------------------------------------
-------------------------------------------------------------------------------

Tuning:DADGBe (can be played in regular tuning, but dropped D makes it easier)

Intro x4
(w/ distortion)

e------------|
B--77---77---|
G--88---88---|
D--88---88---|
A------------|
D------------|

Verse x4

e---------------------------|
B--77---77------77---77-----|
G--88---88------88---88-----|
D--88---88------88---88-----|
A---------------------------|
D---------------------------|

e------------------------------------------------|
B------------------------------------------------|
G------------------------------------------------|
D-11-11-11-11-9--9--9--9--8--8--8--8--6--6--6--6-|
A-9--9--9--9--9--9--9--9--9--9--9--9--9--9--9--9-|
D-9--9--9--9--9--9--9--9--9--9--9--9--9--9--9--9-|

Chorus x2

e-----11------14---------16---------18-|
B--77-----99------11-11------14-14-----|
G--------------------------------------|
D--------------------------------------|
A--------------------------------------|
D--------------------------------------|

e------------------------------------------------|
B------------------------------------------------|
G------------------------------------------------|
D-11-11-11-11-9--9--9--9--8--8--8--8--6--6--6--6-|
A-9--9--9--9--9--9--9--9--9--9--9--9--9--9--9--9-|
D-9--9--9--9--9--9--9--9--9--9--9--9--9--9--9--9-|

Verse x4

e---------------------------|
B--77---77------77---77-----|
G--88---88------88---88-----|
D--88---88------88---88-----|
A---------------------------|
D---------------------------|

e------------------------------------------------|
B------------------------------------------------|
G------------------------------------------------|
D-11-11-11-11-9--9--9--9--8--8--8--8--6--6--6--6-|
A-9--9--9--9--9--9--9--9--9--9--9--9--9--9--9--9-|
D-9--9--9--9--9--9--9--9--9--9--9--9--9--9--9--9-|

Interlude x2

Guitar 1
e------------------------------------------------|
B------------------------------------------------|
G------------------------------------------------|
D-11-11-11-11-9--9--9--9--8--8--8--8--6--6--6--6-|
A-9--9--9--9--9--9--9--9--9--9--9--9--9--9--9--9-|
D------------------------------------------------|

Guitar 2
e-----11------14---------16---------18-|
B--77-----99------11-11------14-14-----|
G--------------------------------------|
D--------------------------------------|
A--------------------------------------|
D--------------------------------------|

Guitar 1
e------------------------------------------------|
B------------------------------------------------|
G------------------------------------------------|
D-11-11-11-11-9--9--9--9--8--8--8--8--6--6--6--6-|
A-9--9--9--9--9--9--9--9--9--9--9--9--9--9--9--9-|
D------------------------------------------------|

Guitar 2
e-------------------------------------|
B-14----------------------------------| (let ring)
G-------------------------------------|
D-------------------------------------|
A-------------------------------------|
D-------------------------------------|

Chorus x2

e-----11------14---------16---------18-|
B--77-----99------11-11------14-14-----|
G--------------------------------------|
D--------------------------------------|
A--------------------------------------|
D--------------------------------------|

e------------------------------------------------|
B------------------------------------------------|
G------------------------------------------------|
D-11-11-11-11-9--9--9--9--8--8--8--8--6--6--6--6-|
A-9--9--9--9--9--9--9--9--9--9--9--9--9--9--9--9-|
D-9--9--9--9--9--9--9--9--9--9--9--9--9--9--9--9-|

Outro x3

e-----------------------------------------|
B-----------------------------------------|
G-----------------------------------------|
D-13-13-13-13-13-13-13-13-9-9-9-9-9-9-9-9-|
A-13-13-13-13-13-13-13-13-9-9-9-9-9-9-9-9-|
D-13-13-13-13-13-13-13-13-9-9-9-9-9-9-9-9-|

End on

e--------|
B--------|
G--------|
D--13----|
A--13----|
D--13----|

Vote please!
            
Submit corrections

↑ Back to top | Tablatures and chords for acoustic guitar and electric guitar, ukulele, drums are parodies/interpretations of the original songs. You may use it for private study, scholarship, research or language learning purposes only