» » »

Placebo - Centrefolds Tabs

Artists:  A B C D E F G H I J K L M N O P Q R S T U V W X Y Z # 

Centrefolds Tabs

(ver. 1) Click to play this song!
Placebo
 Rating:
4.4/5 (11 votes)

 Centrefolds lessons Tabs too difficult? Try these video lessons and learn fast
 
                [Intro]

E|----7------6------------6-----11---9----------------------|
B|------------------9--------------------------12------11---|
G|----8-------------------8-----11---11--------11------11---|
D|----9------8------9-----8---------------------------------|
A|----------------------------------------------------------|
E|----------------------------------------------------------|

'Come on Balthazar?'  x2
E|--7---------------------------------------------------------------|
B|---------------11-----------9-------------11----------------------|
G|---------9------------9-11---------9------------9-----------------|
D|-------9--9----9----9-------9----9---9----9---9---9---------------|
A|--7------------7------------7-------------7-----------------------|
E|------------------------------------------------------------------|

E|-(11)-----------(9)----------(7)-----------(6)-------------|
B|-----------------------------------------------------------|
G|---------8--------------8------------8------------8--------|
D|-------9---9----------8---8--------9---9--------8---8------|
A|--6--------------6------------6-------------6--------------|
E|-----------------------------------------------------------|

''Cause that's wrong?' 
E|---7---------|----|----6-----------|----|--------|
B|-------------|----|----------------|----|--------|
G|---------9---|(x4)|-----------8----|(x4)|--------|x2
D|-------9---9-|----|---------8---8--|----|--------|
A|---7---------|----|----6-----------|----|--------|
E|-------------|----|----------------|----|--------|

'For you to be?'
E|-------------|----|------------6-|----|-------------|
B|----------9--|----|--------------|----|-------------|
G|-----7-8-----|(x4)|-----7-8------|(x4)|-------------|x2
D|-------------|----|--------------|----|-------------|
A|--7----------|----|-6------------|----|-------------|
E|-------------|----|--------------|----|-------------|

'Be mine..' x2
E|--7---------------------------------------------------|
B|---------------11-----------9-------------11----------|
G|---------9------------9-11---------9------------9-----|
D|-------9--9----9----9-------9----9---9----9---9---9---|
A|--7------------7------------7-------------7-----------|                 
E|------------------------------------------------------|              
                                                                       
E|-(11)-------------(9)------------(7)-----------(6)--------------|
B|----------------------------------------------------------------|
G|----------8---------------8--------------8---------------8------|
D|--------9---9-----------8---8----------9---9-----------8---8----|
A|--6----------------6--------------6-------------6---------------|
E|----------------------------------------------------------------|

'And it's wrong?' 
E|---7---------|----|----6-----------|----|----------|
B|-------------|----|----------------|----|----------|
G|---------9---|(x4)|-----------8----|(x4)|----------|x2
D|-------9---9-|----|---------8---8--|----|----------|
A|---7---------|----|----6-----------|----|----------|
E|-------------|----|----------------|----|----------|

'For you to be?' 
E|-------------|----|------------6-|----|------------|
B|----------9--|----|--------------|----|------------|
G|-----7-8-----|(x4)|-----7-8------|(x4)|------------|x2
D|-------------|----|--------------|----|------------|
A|--7----------|----|-6------------|----|------------|
E|-------------|----|--------------|----|------------|

         E
All the centerfolds that you can't afford
G#m
Have long since waved their last goodbyes
         E
All the centerfolds that you can't afford
G#m
You've long since faded from their eyes 
   E        G#m      
So be, be mine
   E        G#m
So be, be mine


[Outro]

E|-------------|----|------------6-|----|----------|
B|----------9--|----|--------------|----|----------|
G|-----7-8-----|(x4)|-----7-8------|(x4)|----------|
D|-------------|----|--------------|----|----------|
A|--7----------|----|-6------------|----|----------|
E|-------------|----|--------------|----|----------|            
Submit corrections


        Centrefolds lessons Hard to play? Try these video lessons and learn fast Centrefolds lessons
        
↑ Back to top | Tablatures and chords for acoustic guitar and electric guitar, ukulele, drums are parodies/interpretations of the original songs. You may use it for private study, scholarship, research or language learning purposes only