» » »

Placebo - Ask For Answers Bass

Artists:  A B C D E F G H I J K L M N O P Q R S T U V W X Y Z # 

Ask For Answers Bass

(ver. 1) Click to play this song!
Placebo
 Rating:
4/5 (4 votes)

 Ask For Answers lessons Tabs too difficult? Try these video lessons and learn fast
 
                Well, heres another half-tab. I'll have the rest done soon.
The only bit missing really is the line in the last part
of the song. Anyway, heres wot I've got. As I always say, 
correct me if wrong, improvise, and let me know how it
goes..

I think this part is a bass line. If not, it sounds good 
anyway so everyone's a winner.

Main Riff?
G----------------------------------------------------
D----------------------------------------------------
A--4-5--7-5-4-4h5h4----------------------------------
E-------------------5--------------------------------
 Bridge/Pre-verse?
G----------------------------------------------------
D----------------------------------------------------
A--------7-^-------------------------------------------
E--5-5-5------------------------------------------------
            
Submit corrections


        Ask For Answers lessons Hard to play? Try these video lessons and learn fast Ask For Answers lessons
        
↑ Back to top | Tablatures and chords for acoustic guitar and electric guitar, ukulele, drums are parodies/interpretations of the original songs. You may use it for private study, scholarship, research or language learning purposes only