» » »

Pilot - Magic Tabs

Artists:  A B C D E F G H I J K L M N O P Q R S T U V W X Y Z # 

Magic Tabs

(ver. 3) Click to play this song!
Pilot
 Rating:
4/5 (4 votes)

 Magic lessons Tabs too difficult? Try these video lessons and learn fast
 
                (Intro)
E|------------------------------------------------12~-12~-------------|
B|-----8-----12121212~-12p10p8---8-10-10b12-8-------------12p10p8-8---|
G|-7h9—--9p7-------------------9--------------9~----------------------|
D|--------------------------------------------------------------------|
A|--------------------------------------------------------------------|
E|--------------------------------------------------------------------|

E|----------------------------------------------------------------------|
B|-12-13-15-1212-12p10----10--------------------------------------------|
G|---------------------12---12------------------------------------------|
D|----------------------------------------------------------------------|
A|----------------------------------------------------------------------|
E|----------------------------------------------------------------------|

slightly wrong to me.  Constructive comments if you please.
  The last few notes won’t sound right unless you play them quickly, as in the song, 
I think they are the right notes.
Thanks for looking and happy playing!!
            
Submit corrections


        Magic lessons Hard to play? Try these video lessons and learn fast Magic lessons
        
↑ Back to top | Tablatures and chords for acoustic guitar and electric guitar, ukulele, drums are parodies/interpretations of the original songs. You may use it for private study, scholarship, research or language learning purposes only