» » »

Pilot - Magic Tabs

Artists:  A B C D E F G H I J K L M N O P Q R S T U V W X Y Z # 

Magic Tabs

(ver. 2) Click to play this song!
Pilot
 Rating:
4/5 (4 votes)

 Magic lessons Tabs too difficult? Try these video lessons and learn fast
 
                Magic
Tuning: Standard

Legend:
^ | - Normal Bend
/ | - Slide Down
b | - Bend
rb| - Reverse Bend
p | - Pulloff
* | - Marks a part that needs to be done fast


         (The bends where I show you what to bend to are done fast)
e|----------------------------------12-----------------------------------|
b|-------------/12-10-8---/15-15-15----15^-15^-15^-15^-*15b16rb15--12-10-|
g|-----------------------------------------------------------------------|
d|--/12-10-9-------------------------------------------------------------|
a|-----------------------------------------------------------------------|
e|-----------------------------------------------------------------------|

e|----19---19---------------------------------------------------------------|
b|-22^--22^--22^-*22b23rb22-19----------------------------------------------|
g|------------------------------*19p17-17p15-15p13--11----------------------|
d|--------------------------------------------------------------------------|
a|--------------------------------------------------------------------------|
e|--------------------------------------------------------------------------|

e|---------------------------------------------------------------------------|
b|--------------------15-----------------------------------------------------|
g|-*14b15rb14p12-14-14^----14^-14^-14^-14^-*14b15rb14p12-14------------------|
d|---------------------------------------------------------------------------|
a|---------------------------------------------------------------------------|
e|---------------------------------------------------------------------------|

e|--------------------------------------------------------------------------|
b|-------------------------------18b20--------------------------------------|
g|---12-*14b15rb14p12-12----------------------------------------------------|
d|--------------------------------------------------------------------------|
a|--------------------------------------------------------------------------|
e|--------------------------------------------------------------------------|
            
Submit corrections


        Magic lessons Hard to play? Try these video lessons and learn fast Magic lessons
        
↑ Back to top | Tablatures and chords for acoustic guitar and electric guitar, ukulele, drums are parodies/interpretations of the original songs. You may use it for private study, scholarship, research or language learning purposes only