» » »

Pilot - Magic Bass

Artists:  A B C D E F G H I J K L M N O P Q R S T U V W X Y Z # 

Magic Bass

(ver. 1) Click to play this song!
Pilot
 Rating:
2.6/5 (25 votes)

 Magic lessons Tabs too difficult? Try these video lessons and learn fast
 
                Tuning: EADG

G|----------------------------------------------------------------|
D|----------------------------------------------------------------|
A|--------------------------------------------7-----7-7---7-5-----|
E|3---3---3---3---3---3---3---3---7---7---7-------------------7---|

G|----------------------------------------------------------------|
D|----------------------------------------------------------------|
A|--------------------7-------7---3---3---6b--3---5---5---8b--5---|
E|5---5---5---5---7h9-----7h9-------------------------------------|

G|----------------------------------------------------------------|
D|--------------------------------5-------------------------------|
A|----------------------------------------------------------------|
E|3---\-------1---------------------------------------------------|
 

G|----------------------------------|
D|--------------------12------------|
A|-----------------------12---------|
E|--------------------------10------|

G|----------------------------------------------------------------|
D|--------------------19--17--------------------------17--16------|
A|10--------------------------17--14--------------------------14--|
E|----------------------------------------------------------------|

G|----------------------------------------------------------------|
D|--------------------------------------------------------7-------|
A|12--------------------------7---5-------------------5h7---------|
E|----------------------------------------------------------------|

G|----------------------------------------------------------------|
D|----------------------------------------------------------------|
A|3-----------6---------------------------------------------------|
E|--------------------------------3-----------1-------------------|

0:38

G|----------------------------------------------------------------|
D|----------------------------------------------------------------|
A|--------------------------------------------7-----7-7---7-7-7---|
E|3---3---3---3---3---3---3---3---7---7---7-----------------------|

G|----------------------------------------------------------------|
D|----------------------------------------------------------------|
A|--------------------7-------7---3---3---6b--3---5---5---5-3-2-0-|
E|5---5---5---5---7h9-----7h9-------------------------------------|

G|----------------------------------------------------------------|
D|----------------------------------------------------------------|
A|--------------------------------------------7-------7---7-5-----|
E|3---3---3---3---3---3---3---3---7---7---7-------------------7---|

G|----------------------------------------------------------------|
D|----------------------------------------------------------------|
A|--------------------7-------7---3---3---6b--3---5---5---5-5-5---|
E|5---5---5---5---7h9-----7h9-------------------------------------|

G|--------------------------------|
D|--------------------------------|
A|--------------------------------|
E|3-----------1-------------------|

0:59

G|----------------------------------------------------------------|
D|------------5-------------------------------9-------------------|
A|----------------------------5-----------------------------------|
E|3-------------------------------7---------------------------7---|

G|----------------------------------------------------------------|
D|------------7-----------------------------------------------7---|
A|----------------------------7---5---------/-9-------------------|
E|5---------------------------------------------------------------|

G|----------------------------------------------------------------|
D|------------5-------------------------------9-------------------|
A|----------------------------5-----------------------------------|
E|3-------------------------------7---------------------------7---|

G|----------------------------------------------------------------|
D|------------7-----------------------------------------------7---|
A|----------------------------7---5---------/-9-------------------|
E|5---------------------------------------------------------------|

G|----------------------------------------------------------------|
D|----------------------------------------------------------------|
A|3-----------6---------------------------------------------------|
E|--------------------------------3-----------1-------------------|

1:22

G|----------------------------------------------------------------|
D|----------------------------------------------------------------|
A|--------------------------------------------7---------7-7-5-----|
E|3---3---3---3---3---3---3---3---7---7---7-------------------7---|

G|----------------------------------------------------------------|
D|----------------------------------------------------------------|
A|--------------------7-------7---3---3---6b--3---5---5---5-5-5-5-|
E|5---5---5-----5-7h9-----7h9-------------------------------------|

G|----------------------------------------------------------------|
D|----------------------------------------------------------------|
A|--------------------------------------------7------7-7-7-7-5----|
E|3---3---3-----3-3---3---3-3-3---7---7---7---------------------7-|

G|----------------------------------------------------------------|
D|----------------------------------------------------------------|
A|--------------------7-------7---3---3---6b--3---5---5---5-5-5---|
E|5---5---5-----5-7h9-----7h9-------------------------------------|

G|--------------------------------|
D|--------------------------------|
A|--------------------------------|
E|3-----------1-------------------|

1:43

G|----------------------------------------------------------------|
D|------------5-------------------------------9-------------------|
A|----------------------------5-----------------------------------|
E|3-------------------------------7---------------------------7---|

G|----------------------------------------------------------------|
D|------------7---------------------------------------------------|
A|----------------------------7---5---------/-9-------------------|
E|5---------------------------------------------------------------|

G|----------------------------------------------------------------|
D|------------5-------------------------------9-------------------|
A|----------------------------5-----------------------------------|
E|3-------------------------------7---------------------------7---|

G|----------------------------------------------------------------|
D|------------7-----------------------------------------------7---|
A|----------------------------7---5---------/-9-------------------|
E|5---------------------------------------------------------------|

G|----------------------------------------------------------------|
D|----------------------------------------------------------------|
A|3-----------6---------------------------------------------------|
E|--------------------------------3-----------1-------------------|

2:07

G|----------------------------------------------------------------|
D|----------------------------------------------------------------|
A|--------------------------------------------7------7-7-7-7-5----|
E|3---3---3---3---3---3---3---3---7---7---7---------------------7-|

G|----------------------------------------------------------------|
D|----------------------------------------------------------------|
A|--------------------7-------7---3---3---6b--3---5---5---5-3-2-0-|
E|5---5---5-----5-7h9-----7h9-------------------------------------|

G|----------------------------------------------------------------|
D|----------------------------------------------------------------|
A|--------------------------------------------7------7-7-7-7-5----|
E|3---3---3---3---3---3---3---3---7---7---7---------------------7-|

G|----------------------------------------------------------------|
D|----------------------------------------------------------------|
A|--------------------7-------7---3---3---6b--3---5---5---5---5---|
E|5---5---5-----5-7h9-----7h9-------------------------------------|

G|--------------------------------|
D|--------------------------------|
A|--------------------------------|
E|3-----------1-------------------|

2:28

G|----------------------------------------------------------------|
D|------------5-------------------------------9-------------------|
A|----------------------------5-----------------------------------|
E|3-------------------------------7---------------------------7---|

G|----------------------------------------------------------------|
D|------------7---------------------------------------------------|
A|----------------------------7---5---------/-9-------------------|
E|5---------------------------------------------------------------|

G|----------------------------------------------------------------|
D|------------5-------------------------------9-------------------|
A|----------------------------5-----------------------------------|
E|3-------------------------------7---------------------------7---|

G|----------------------------------------------------------------|
D|------------7-----------------------------------------------7---|
A|----------------------------7---5---------/-9-------------------|
E|5---------------------------------------------------------------|

G|----------------------------------------------------------------|
D|----------------------------------------------------------------|
A|3-----------6---------------------------------------------------|
E|--------------------------------3-----------1-------------------|

G|----------------------------------------------------------------|
D|----------------------------------------------------------------|
A|----------------------------------------------------------------|
E|3-----------1-------------------3-----------1-------------------|

G|----------------------------------------------------------------|
D|----------------------------------------------------------------|
A|----------------------------------------------------------------|
E|3-----------1-------------------3-------------------------------|            
Submit corrections


        Magic lessons Hard to play? Try these video lessons and learn fast Magic lessons
        
↑ Back to top | Tablatures and chords for acoustic guitar and electric guitar, ukulele, drums are parodies/interpretations of the original songs. You may use it for private study, scholarship, research or language learning purposes only