» » »

Pepper - Trade Winds Bass

Artists:  A B C D E F G H I J K L M N O P Q R S T U V W X Y Z # 

Trade Winds Bass

(ver. 1) Click to play this song!
Pepper
 Rating:
4/5 (4 votes)

 Trade Winds lessons Tabs too difficult? Try these video lessons and learn fast
 
                Tuning: GDAE


Verse

G|---------------------------------------------------
D|--------------------------------3------------------
A|--4--4-----4--------------4--6-----4/1-------------
E|--------4-----4--4--6--6---------------------------

Chorus

G|----------------------------------------------------
D|----------------------------------------------------
A|--4~-------------------1-----1----------------------
E|------4~--0--4--6~--2-----2-------------------------



*Thats it, listen to the song to get the timing right.
            
Submit corrections


        Trade Winds lessons Hard to play? Try these video lessons and learn fast Trade Winds lessons
        
↑ Back to top | Tablatures and chords for acoustic guitar and electric guitar, ukulele, drums are parodies/interpretations of the original songs. You may use it for private study, scholarship, research or language learning purposes only