» » »

Pepper - Bring Me Along Tabs

Artists:  A B C D E F G H I J K L M N O P Q R S T U V W X Y Z # 

Bring Me Along Tabs

(ver. 1) Click to play this song!
Pepper
 Rating:
2.2/5 (10 votes)

 Bring Me Along lessons Tabs too difficult? Try these video lessons and learn fast
 
                [Intro]
e|3/5-7-3-2-2~-|
B|5/7-7-5-3-3~-|
G|-------------|
D|-------------|
A|-------------|
E|-------------|

[Verse]
e|3/5-7-3-2-2~-|------------------------------------------------------|
B|5/7-7-5-3-3~-|------------------------------------------------------|
G|-------------|7-7-6-6-9-9---7-7-6-6-------7-7-6-6-------------------|
D|-------------|----------------------7-7-----------7-7---777-5-5-4-4-|
A|-------------|------------------------------------------------------|
E|-------------|------------------------------------------------------|
                * * * * * *   * * * * * *   * * * * * *   *** * * * *

e|------------------------------------------------------|
B|------------------------------------------------------|
G|7-7-6-6-9-9---7-7-6-6-------7-7-6-6-------------------|
D|----------------------7-7-----------7-7---777-5-5-4-4-|  [2x]
A|------------------------------------------------------|
E|------------------------------------------------------|
  * * * * * *   * * * * * *   * * * * * *   *** * * * *

e|-----------------------------------------3/5-7-3-2-2~-|
B|-----------------------------------------5/7-7-5-3-3~-|
G|7-7-6-6-9-9---7-7-6-6-------7-7-6-6-------------------|
D|----------------------7-7-----------7-7---------------|
A|------------------------------------------------------|
E|------------------------------------------------------|
  * * * * * *   * * * * * *   * * * * * *   

[Chorus]
e|----7~----14~----7~----12-12h14-|
B|----7~----14~----7~----12-12h14-|
G|----7~----14~----7~----12-12h14-|
D|----7~----14~----7~----12-12----|
A|--------------------------------|
E|--------------------------------|

e|----7~----14~--7~---3/5-7-3-2-2-|
B|----7~----14~--7~---5/7-7-5-3-3-|
G|----7~----14~--7~---------------|
D|----7~----14~--7~---------------|
A|--------------------------------|
E|--------------------------------|

e|----7~----14~----7~----12-12h14-|
B|----7~----14~----7~----12-12h14-|
G|----7~----14~----7~----12-12h14-|
D|----7~----14~----7~----12-12----|
A|--------------------------------|
E|--------------------------------|

e|----7~----14~--7~---3/5-7-3-2-2~|
B|----7~----14~--7~---5/7-7-5-3-3~|
G|----7~----14~--7~---------------|
D|----7~----14~--7~---------------|
A|--------------------------------|
E|--------------------------------|

[Verse]
e|-----7-7---14-14---7-7---12-12-|
B|-----7-7---14-14---7-7---12-12-|
G|-----7-7---14-14---7-7---12-12-|
D|-----7-7---14-14---7-7---12-12-|
A|-------------------------------|
E|-------------------------------|

then

e|3/5-7-3-2-2~-|------------------------------------------------------|
B|5/7-7-5-3-3~-|------------------------------------------------------|
G|-------------|7-7-6-6-9-9---7-7-6-6-------7-7-6-6-------------------|
D|-------------|----------------------7-7-----------7-7---777-5-5-4-4-|
A|-------------|------------------------------------------------------|
E|-------------|------------------------------------------------------|
                * * * * * *   * * * * * *   * * * * * *   *** * * * *

e|------------------------------------------------------|
B|------------------------------------------------------|
G|7-7-6-6-9-9---7-7-6-6-------7-7-6-6-------------------|
D|----------------------7-7-----------7-7---777-5-5-4-4-|  [2x]
A|------------------------------------------------------|
E|------------------------------------------------------|
  * * * * * *   * * * * * *   * * * * * *   *** * * * *

e|-----------------------------------------3/5-7-3-2-2~-|
B|-----------------------------------------5/7-7-5-3-3~-|
G|7-7-6-6-9-9---7-7-6-6-------7-7-6-6-------------------|
D|----------------------7-7-----------7-7---------------|
A|------------------------------------------------------|
E|------------------------------------------------------|
  * * * * * *   * * * * * *   * * * * * *   

[Chorus]

[Bridge]
e|----------------------------------------------------------|
B|----------------------------------------------------------|
G|7-6---7--6---7--6---7--6-7-9-7-6----7-6----7-6----7-6-----|
D|----7------7------7--------------7------7------7------4-4-|  [2x]
A|----------------------------------------------------------|
E|----------------------------------------------------------|
  * * * *  * * *  * * *  * * * * * *  * * *  * * *  * * * *  

[Chorus]
e|----7~----14~----7~----12-12h14-|
B|----7~----14~----7~----12-12h14-|
G|----7~----14~----7~----12-12h14-|
D|----7~----14~----7~----12-12----|
A|--------------------------------|
E|--------------------------------|

e|----7~----14~--7~---3/5-7-3-2-2-|
B|----7~----14~--7~---5/7-7-5-3-3-|
G|----7~----14~--7~---------------|
D|----7~----14~--7~---------------|
A|--------------------------------|
E|--------------------------------|

e|----7~----14~----7~----12-12h14-|
B|----7~----14~----7~----12-12h14-|
G|----7~----14~----7~----12-12h14-|
D|----7~----14~----7~----12-12----|
A|--------------------------------|
E|--------------------------------|

e|----7~----14~--7~---3/5-7-3-2-2~|
B|----7~----14~--7~---5/7-7-5-3-3~|
G|----7~----14~--7~---------------|
D|----7~----14~--7~---------------|
A|--------------------------------|
E|--------------------------------|

[end]
e|----------------------------------------------------------|
B|----------------------------------------------------------|
G|7-6---7--6---7--6---7--6-7-9-7-6----7-6----7-6----7-6-----|
D|----7------7------7--------------7------7------7------4-4-|  [2x]
A|----------------------------------------------------------|
E|----------------------------------------------------------|
  * * * *  * * *  * * *  * * * * * *  * * *  * * *  * * * *  
            
Submit corrections


        Bring Me Along lessons Hard to play? Try these video lessons and learn fast Bring Me Along lessons
        
↑ Back to top | Tablatures and chords for acoustic guitar and electric guitar, ukulele, drums are parodies/interpretations of the original songs. You may use it for private study, scholarship, research or language learning purposes only