» » »

Pepper - Stormtrooper Bass

Artists:  A B C D E F G H I J K L M N O P Q R S T U V W X Y Z # 

Stormtrooper Bass

(ver. 1) Click to play this song!
Pepper
 Rating:
4/5 (4 votes)

 Stormtrooper lessons Tabs too difficult? Try these video lessons and learn fast
 
                Not 100% sure but sounds right
(first tab)
h=hammer on 

Intro Chorus:
g--------------------------------------------------------------------|
d--------------------------------------------------------------------|
a-6-6----------------------------------------------------------------|
e-----6--2-----------------------------------------------------------|X4
Verse 1:
G--------------------------------------------------------------------|
D--------------------------------------------------------------------|
A-6-6h8-6h8-1-1-2----------------------------------------------------|
E----------------2---------------------------------------------------|
(repeat that until next chorus)

Chorus: (same as intro)
g--------------------------------------------------------------------|
d--------------------------------------------------------------------|
a-6-6----------------------------------------------------------------|
e-----6--2-----------------------------------------------------------|x4

Verse two: (listen for correct timing)
g--------------------------------------------------------------------|
d--------------------------------------------------------------------|
A-6-6-6-6-1-2-1-2----------------------------------------------------|
G----------------2---------------------------------------------------|
(repat until chorus) 

**Chorus** (x4)

Third verse: (same as the first)
G--------------------------------------------------------------------|
D--------------------------------------------------------------------|
A-6-6h8-6h8-1-1-2----------------------------------------------------|
E----------------2---------------------------------------------------|

**Chorus** (x4)

will finish the bridge and outro later haven't figured the correct notes yet
            
Submit corrections


        Stormtrooper lessons Hard to play? Try these video lessons and learn fast Stormtrooper lessons
        
↑ Back to top | Tablatures and chords for acoustic guitar and electric guitar, ukulele, drums are parodies/interpretations of the original songs. You may use it for private study, scholarship, research or language learning purposes only