Home » P » Pepper »

Pepper - Trade Winds Bass

Artists:  A B C D E F G H I J K L M N O P Q R S T U V W X Y Z # 

Trade Winds Bass

(ver. 2) Click to play this song!
Pepper
 Rating:
4/5 (4 votes)
                



Listen to figure out the timing, its not hard so I'm not gonna tab it

At the very beginning slide down from 11 on A

--main riff--
G|-----------------------------------------------------------|
D|-------6---------------------3-----------------------------|
A|-4--4----4---------------4-4---4\--------------------------|
E|------------4--4h6--6--------------------------------------|


--chorus--
G|-----------------------------------------------------------|
D|-----------------------------------------------------------|
A|-4--------1---------1--------------------------------------|
E|----4--2------2--4-----------------------------------------|

Basically like this but with some small variations


That is all.
            
Submit corrections

↑ Back to top | Tablatures and chords for acoustic guitar and electric guitar, ukulele, drums are parodies/interpretations of the original songs. You may use it for private study, scholarship, research or language learning purposes only