» » »

Pepper - Bring Me Along Bass

Artists:  A B C D E F G H I J K L M N O P Q R S T U V W X Y Z # 

Bring Me Along Bass

(ver. 2) Click to play this song!
Pepper
 Rating:
4.2/5 (5 votes)

 Bring Me Along lessons Tabs too difficult? Try these video lessons and learn fast
 
                -----------------------------------------------------------------------------
			     Bring Me Along - Pepper
-----------------------------------------------------------------------------


Tuning: Normal

G|--------------------------------------------------------------------------|
D|--------7-7-7-7------4-4-4-4----------------------------------------------|
A|--55--5----------2-2--------------7-7-7-7------4-4-5-5--------------------|
E|------------------------------5-5----------2-2----------------------------|

  (chorus)
G|--------------------------------------------------------------------------|
D|---0---------------------22-----------------------------------------------|
A|-------------0----0--044--------------------------------------------------|
E|--------2-----------------------------------------------------------------|
            
Submit corrections


        Bring Me Along lessons Hard to play? Try these video lessons and learn fast Bring Me Along lessons
        
↑ Back to top | Tablatures and chords for acoustic guitar and electric guitar, ukulele, drums are parodies/interpretations of the original songs. You may use it for private study, scholarship, research or language learning purposes only