» » »

Pepper - Bring Me Along Bass

Artists:  A B C D E F G H I J K L M N O P Q R S T U V W X Y Z # 

Bring Me Along Bass

(ver. 1) Click to play this song!
Pepper
 Rating:
4/5 (4 votes)

 Bring Me Along lessons Tabs too difficult? Try these video lessons and learn fast
 
                Standard tuning

verse
G---------------------------------------------------------|
D------7-7-7-7--------------------------------------------|
A--5--5----------5--5-9-9-9-9------5-5-5-5-------4-4-7-7--|
E------------------------------7--7----------5--5---------|

chorus
G-------------------------------|
D-------------------------2-2---|
A--5---------------0-0-4-4------|
E--------2-----7----------------|

bridge                                     (outro second time)
G-----------------------------------------|--------------------------|
D-------------------------7/9-7/9---------|-------------12-12-12-12\-|
A--5~-----------5~----5-5---------5~------|-----5-5-5-5--------------|
E-----------5-7---------------------------|-5-7----------------------|

outro
|-------------7/9-7-7/9-------------|
|-----------------------7/9-7-------|
|-----5~----------------------9\-5~-|
|-5-7-------------------------------|
            
Submit corrections


        Bring Me Along lessons Hard to play? Try these video lessons and learn fast Bring Me Along lessons
        
↑ Back to top | Tablatures and chords for acoustic guitar and electric guitar, ukulele, drums are parodies/interpretations of the original songs. You may use it for private study, scholarship, research or language learning purposes only