Home » P » Pendulum »

Pendulum - Propane Nightmares Bass

Artists:  A B C D E F G H I J K L M N O P Q R S T U V W X Y Z # 

Propane Nightmares Bass

(ver. 3) Click to play this song!
Pendulum
PROPANE NIGHTMARES by PENDULUM
Standard Tuning

 starts at 0:21
G|0000000000000000------------------------------------------------|
D|----------------00000000000000001111111111111111--------00000000| 
A|------------------------------------------------11111111--------| x2
E|----------------------------------------------------------------|

|--------------------------------|--------------------------------|
|11111111--------00000000--------|11111111--------0000000000000000|
|--------11111111----------------|--------11111111----------------| x2
|------------------------33333333|--------------------------------|

|-----------------------------------------------------|
|--------32~----------------------32~-----------------|
|-01---1------01---1-131---01---1-----1111111133333333| x2
|3----3------3----3-------3----3----------------------|

|----------------|----------------|----------------|----------------|
|----------------|----------------|----------------|----------------|
|----------------|------------3333|----------------|1111111133333333| x2
|3333333333331111|333333333333----|3333333333331111|----------------|

|--------------------------------|
|--------1111111133333333--------|
|------------------------33333333| x3
|33333333------------------------|

|------------------------11111111|
|--------1111111133333333--------|
|--------------------------------|
|33333333------------------------|

|-----------------------------------------------------|
|--------32~----------------------32~-----------------|
|-01---1------01---1-131---01---1-----1111111133333333| x2
|3----3------3----3-------3----3----------------------|

|----------------|----------------|----------------|----------------|
|----------------|----------------|----------------|----------------|
|----------------|------------3333|----------------|1111111133333333| x2
|3333333333331111|333333333333----|3333333333331111|----------------|

|--------------------------------|
|--------1111111133333333--------|
|------------------------33333333| x3
|33333333------------------------|

|------------------------111111110~|
|--------1111111133333333----------|
|----------------------------------|
|33333333--------------------------|

rest until 3:40

|--------------------------------|--------------------------------|
|11111111--------00000000--------|11111111--------0000000000000000|
|--------11111111----------------|--------11111111----------------| x2
|------------------------33333333|--------------------------------|

|--------------------------------|
|--------------------------------|
|----------------3333333311111111| x7
|3333333311111111----------------|

|--------------------------------|
|--------------------------------|
|----------------3333333333333333|
|3333333311111111----------------|

|-----------------------------------------------|    |--|
|--------32~----------------------32~-----------|    |--|
|-01---1------01---1-131---01---1------01--1-131| x2 |--|
|3----3------3----3-------3----3------3---------|    |3\|
            
Submit corrections

↑ Back to top | Tablatures and chords for acoustic guitar and electric guitar, ukulele, drums are parodies/interpretations of the original songs. You may use it for private study, scholarship, research or language learning purposes only