» » »

Paul Simon - Horace And Pete Theme Tabs

Artists:  A B C D E F G H I J K L M N O P Q R S T U V W X Y Z # 

Horace And Pete Theme Tabs

(ver. 1) Click to play this song!
Paul Simon
 Rating:
4.4/5 (17 votes)

 Horace And Pete Theme  lessons Tabs too difficult? Try these video lessons and learn fast
 
                e|-3--5--8--10------3--5--8--10------3-5-8-10s12-10-8-----5----8-8-8-7-5-3\----0--0---|
B|-0----------------0----------------0--------------------6----6------------1--1--1---|
G|-4--5--9--10------4--5--9--10------4-5-9-10s12-10-9-----5----5------------0---------|
D|--------------------------------------------------------------------------2---------|
A|-----------------------------------------------------/8-------------------3---------|
E|------------------------------------------------------------------------------------|

e|-1-0---0----------------------------------------------------------------------------|
B|-----3---1-0---1-0---0-----------(12)-----------------------------------------------|
G|-------------2-----2-0-0-0---(12)---------------------------------------------------|
D|-----------------------3-0--------------------2-------------------------------------|
A|-------------------------------------------3----3-----------------------------------|
E|-----------------------------------------3-3----------------------------------------|            
Submit corrections


        Horace And Pete Theme  lessons Hard to play? Try these video lessons and learn fast Horace And Pete Theme  lessons
        
↑ Back to top | Tablatures and chords for acoustic guitar and electric guitar, ukulele, drums are parodies/interpretations of the original songs. You may use it for private study, scholarship, research or language learning purposes only