» » »

Paul Simon - Horace And Pete Theme Tabs

Artists:  A B C D E F G H I J K L M N O P Q R S T U V W X Y Z # 

Horace And Pete Theme Tabs

(ver. 3) Click to play this song!
Paul Simon
 Rating:
4.3/5 (22 votes)

 Horace And Pete Theme lessons Tabs too difficult? Try these video lessons and learn fast
 
                [Intro]
                                                 Strum 4 times
e|---0--0--------------------------------------0-----------------------------|
B|-6-------0-----0--------------[12]-----------1-----------------------------|
G|----7--5-----5----------------[12]-----------0-----------------------------|
D|-----------7-------0----------[12]-----------2-----------------------------|
A|-----------------8---------------------------3-----------------------------|
F|---------------------------------------------------------------------------|

[Verse]
e|--3--5--8-10----3--5--8--10----3--h5--8-10-10s12-10--8\--------------------|
B|--0-------------0--------------0-------------------------------10----------|
G|-----5--9-10-------5--9--10-------5---9-10-10s12-10--9\--------10----------|
D|---------------------------------------------------------------10----------|
A|------------------------------------------------------------/--------------|
F|----------------------------------------------------------0----------------|
                         Strum 4 times
e|---------------------0-----------------------------------------------------|
B|-----13-13-12-10-----1-----------------------------------------------------|
G|---10----------------0-----------------------------------------------------|
D|-10------------------2-----------------------------------------------------|
A|---------------------3-----------------------------------------------------|
F|---------------------------------------------------------------------------|
                                                 Strum 4 times
e|---0--0--------------------------------------0-----------------------------|
B|-6-------0-----0--------------[12]-----------1-----------------------------|
G|----7--5-----5----------------[12]-----------0-----------------------------|  
D|-----------7-------0----------[12]-----------2-----------------------------|
A|-----------------8---------------------------3-----------------------------|
F|---------------------------------------------------------------------------|
At the end of the second verse play this part twice
                                                 Strum 4 times
e|---0--0--------------------------------------0-----------------------------|
B|-6-------0-----0--------------[12]-----------1-----------------------------|
G|----7--5-----5----------------[12]-----------0-----------------------------|
D|-----------7-------0----------[12]-----------2-----------------------------|
A|-----------------8---------------------------3-----------------------------|
F|---------------------------------------------------------------------------|             
Submit corrections


        Horace And Pete Theme lessons Hard to play? Try these video lessons and learn fast Horace And Pete Theme lessons
        
↑ Back to top | Tablatures and chords for acoustic guitar and electric guitar, ukulele, drums are parodies/interpretations of the original songs. You may use it for private study, scholarship, research or language learning purposes only