» » »

Paul Simon - Horace And Pete Theme Tabs

Artists:  A B C D E F G H I J K L M N O P Q R S T U V W X Y Z # 

Horace And Pete Theme Tabs

(ver. 2) Click to play this song!
Paul Simon
 Rating:
4.3/5 (6 votes)

 Horace And Pete Theme  lessons Tabs too difficult? Try these video lessons and learn fast
 
                E|-3--5--8--10------3--5--8--10------3h5-8-10-10/12-10-8-------5----8-8-8-7-5-------------0--0-|
B|-0----------------0----------------0------------------------6----6----------6\----1--1--1--1-|
G|-4--5--9--10------4--5--9--10------4/5-9-10-10/12-10-9----/5----5-----------------0--0-------|
D|---------------------------------------------------------------------------------------------|
G|-------------------------------------------------------------------------------0-------------|
F|--------------------------------------------------------0------------------------------------|


e|-1p0---0-------------------------------------------------------------------------------------|
B|-----3---1p0---1p0--------------(12)--------1--1--1-1-1--------------------------------------|
G|-------------2-----2p0---------(12)---------0--0--0-0-0--------------------------------------|
D|-----------------------3p0-------------------------------------------------------------------|
G|----------------------------------------0----------------------------------------------------|
F|---------------------------------------------------------------------------------------------|

Last time play this (when Simon sings the harmonised "Horace and Pete" line):

e|-1p0---0----------------------------------8--------------------------------------------------|
B|-----3---1p0---1p0--------------(12)----------5----------------------------------------------|
G|-------------2-----2p0---------(12)-----0----------------------------------------------------|
D|-----------------------3p0-------------------------------------------------------------------|
G|---------------------------------------------------------------------------------------------|
F|---------------------------------------------------------------------------------------------|
            
Submit corrections


        Horace And Pete Theme  lessons Hard to play? Try these video lessons and learn fast Horace And Pete Theme  lessons
        
↑ Back to top | Tablatures and chords for acoustic guitar and electric guitar, ukulele, drums are parodies/interpretations of the original songs. You may use it for private study, scholarship, research or language learning purposes only