Home » P » Paul Simon »

Paul Simon - Still Crazy After All These Years Tabs

Artists:  A B C D E F G H I J K L M N O P Q R S T U V W X Y Z # 

Still Crazy After All These Years Tabs

(ver. 1) Click to play this song!
Paul Simon
 Rating:
4/5 (4 votes)
                Still Crazy After All These Years  by Paul Simon

This is played in the key of D.

I put the bridge in a key that I like to sing with which is
more in keeping with the recoded key.
I left out the solo part and put in some transition chords.

Much thanks to BaddGuitar for his video link and tab in the recorded key.


Intro
--9--7------------7-5----2-3-0-2-2---3---2--------2----|
--7----10-9-10----5---8----------3---0---3---2----3----|
--7-------9-------5------4---2---2---0---2---2----2----|
--7-------9-------5--------------0-0---0-----2--0------|
----------7--------------------------------0-----------|
-------------------------------------------------------|

Verse 1
            D    D7          G                 C9
  I met my old lover on the street last night
------------2----2-----------x------------------------|
------------3----1-----------0-----------------3------|
------------2----2-----------0-----------------3------|
------------0----0-----------0-----------------2------|
-----------------------------2-----------------3------|
-----------------------------3------------------------|
      D                 C#7           FSUS4*  F#
She seemed so glad to see me I just smiled
------2-----------------------------------------------|
------3--------------------------------5--------------|
------2----------------------4-------4---4-3----------|
------0--------------------3--------------------------|
------------------------4-----------------------------|
-------------------------------------2-----2----------|

Bm     Am7                    D                G13no5*             Ab half dim*
And we talked about some old times And we drank ourselves some beers
-------0-------------------2------------------------------------------|
-3-----1-------------------3---------------5--------------------3-----|
-4-----0-------------------2---------------5--------------------4-----|
-4-----2-------------------0---------------3--------------------0-----|
-2-----0-----------------------------------3--------------------x-----|
-------------------------------------------3--------------------4-----|

      A*                    Bm       F#dim
Still crazy after all these years   Oh...
------------------------------------4-----------------|
-------3--5--7-----7----5----3------3-----------------|
-------0---------------------4------4-----------------|
-------4--5--7-----7----5----4------3-----------------|
-------0-----0-----0--0------2------------------------|
------------------------------------------------------|
       A*                    D
Still crazy after all these years
-----------------------------2----------------------|
-------3--5--7-----7----5----3----------------------|
-------0---------------------2----------------------|
-------4--5--7-----7----5----0----------------------|
-------0-----0-----0--0-----------------------------|
----------------------------------------------------|


VERSE 2
              G      D        Am7        G        C9
I’m not the kind of man who tends to socialize
  D               C#7           FSUS4*  F#
I seem to lean on old familiar ways
Bm     Am7                 D                G13no5*       Ab half dim*
And I aint no fool for love songs that whisper in my ears
      A*                    Bm       F#dim
Still crazy after all these years   Oh...
      A*                     D9
Still crazy after all these years


BRIDGE
Emaj7        B  Bsus   Emaj7    E       G*
Four in the morning   cr*pped out,  yawn  - ing
--4--2---------------------------------------------|
--4-----5---4--5------4--------5------4-----5------|
--4---------4---------4---------------4------------|
--2---------4---------2---------------4------------|
------------2-------------------------X------------|
--------------------------------------4------------|
 C#*         B     A    E
Longing my life   a-  way
-2---------------------0-------|
-0--5---4---4-----2----0-------|
------------4-----2----1-------|
------------4-----2----2-------|
-4----------2-----0----2-------|
-----------------------0-------|
EmADD7  EmADD6  Em   B   C  B   C      G
I’ll    ne-   ver  wor-ry Why should I?
     Cmaj7      B7    Cmaj7   B7     EmADD7    A7
It’s all gonna fade

VERSE 3
Now I sit by my window and I watch the cars
I fear I’ll do some damage one fine day
But I would not be convicted by a jury of my peers
Still crazy after all these years,  Oh

D  DSUS4 D                     G  GSUS4  G
Still crazy             Still crazy
        D         A          D
Still crazy after all these years
            
Submit corrections

↑ Back to top | Tablatures and chords for acoustic guitar and electric guitar, ukulele, drums are parodies/interpretations of the original songs. You may use it for private study, scholarship, research or language learning purposes only