» » »

Paramore - Caught In The Middle Tabs

Artists:  A B C D E F G H I J K L M N O P Q R S T U V W X Y Z # 

Caught In The Middle Tabs

(ver. 2) Click to play this song!
Paramore
 Rating:
4.4/5 (17 votes)

 Caught In The Middle  lessons Tabs too difficult? Try these video lessons and learn fast
 
                [Intro]

e|------7-------7--------------|------7-------7--------------|
B|--10-10---10-10---5-5---5-5--|--10-10---10-10---5-5---5-5--|
G|---9--9----9--9---5-4---4-4--|---9--9----9--9---5-4---4-4--|
D|--10-10---10-10---3-3---5-5--|--10-10---10-10---3-3---5-5--|
A|-----------------------------|-----------------------------|
E|-----------------------------|-----------------------------|

[Verse]

e|------7-------7--------------|------7-------------------------|
B|--10-10---10-10---5-5---5-5--|--10-10---10--8---5-5---5-5--55-|
G|---9--9----9--9---5-4---4-4--|---9--9----9--9---5-4---4-4--44-|
D|--10-10---10-10---3-3---5-5--|--10-10---10-10---3-3---5-5--55-|
A|-----------------------------|--------------------------------|
E|-----------------------------|--------------------------------|

e|------7-------7--------------|------7---------1212------------|
B|--10-10---10-10---5-5---5-5--|--10-10---10-10-1010--5-5---5-5-|
G|---9--9----9--9---5-4---4-4--|---9--9----9-12-1212--5-4---4-4-|
D|--10-10---10-10---3-3---5-5--|--10-10---10----------3-3---5-5-|
A|-----------------------------|--------------------------------|
E|-----------------------------|--------------------------------|

[Refrain] add delay
e|----------------------------|------------------------------|
B|--10-10---10-10---8-8--8-8--|--10-10---10-10---5-5---3-3---|
G|---9--9----9--9---7-7--7-7--|---9--9----9--9---5-4---4-4---|
D|--10-10---10-10---9-9--9-9--|--10-10---10-10---5-5---5-5---|
A|---8--8----8--8---7-7--7-7--|---8--8----8--8---------------|
E|----------------------------|------------------------------|

Chorus
Right Speaker Guitar
e|--12-12---12-12---7-7------10-|-12-12---12-12--12-------------------------|
B|--12-12---13-13---8-8---10-10-|-12-12---13-13--12----------13-12----------|
G|--12-12---x--x----9-9---10-10-|-12-12---x--x---12-12p10h12p------12-12-10-|
D|--10-10---x--x----9-9---10-10-|-10-10---x--x------------------------------|
A|----------12-12---7-7---8--8--|---------12-12-----------------------------|
E|------------------------------|-------------------------------------------|

Left Speaker Guitar
e|------------------------------|-------------------------------------------|
B|------------------------------|-------------------------------------------|
G|-------5---------5------------|------5---------5--------------------------|
D|-----5---5-----5---5----------|----5---5-----5---5------------------------|
A|---3--------------------------|--3----------------------------------------|
E|-----------5-5----------------|----------5-5------------------------------|

Right Speaker Guitar
e|--12-12---12-12---7-7------10-|-12-12---12-12--12-12----------------------|
B|--12-12---13-13---8-8---10-10-|-12-12---13-13--12-12-13-12----------------|
G|--12-12---x--x----9-9---10-10-|-12-12---x--x---12-12------14-12-14-12-----|
D|--10-10---x--x----9-9---10-10-|-10-10---x--x------------------------------|
A|----------12-12---7-7---8--8--|---------12-12-----------------------------|
E|------------------------------|-------------------------------------------|

Left Speaker Guitar
e|------------------------------|-------------------------------------------|
B|-----------------5------------|-------------------------------------------|
G|-------5----------4-----------|------5---------5--------------------------|
D|-----5---5-----5--------------|----5---5-----5---5------------------------|
A|---3--------------------------|--3----------------------------------------|
E|-----------5-5----------------|----------5-5------------------------------|

[Instrumenta I]

e|------7-------7--------------|------7-------7--------------|
B|--10-10---10-10---5-5---5-5--|--10-10---10-10---5-5---5-5--|
G|---9--9----9--9---5-4---4-4--|---9--9----9--9---5-4---4-4--|
D|--10-10---10-10---3-3---5-5--|--10-10---10-10---3-3---5-5--|
A|-----------------------------|-----------------------------|
E|-----------------------------|-----------------------------|

e|---7-------------------------|--7---8----------------------|
B|------8---------8------------|---------8----8--------------|
G|----------9---------9---7----|-----------------9----7------|
D|-----------------------------|-----------------------------|
A|-----------------------------|-----------------------------|
E|-----------------------------|-----------------------------|


[Verse II]

Guitar I Same

Right Speaker Guiar
e|----------------12-----------|---------------12------------|
B|----------12h13-----12-------|----------12h13---12---------|
G|-10h12h14--------------12----|-10h12h14------------12------|
D|--------------------------14-|------------------------10---|
A|-----------------------------|-----------------------------|
E|-----------------------------|-----------------------------|

e|----------------12-----------|---------------12---------------12--|
B|----------12h13-----12-------|----------12h13------------12h13----|
G|-10h12h14--------------12----|-10h12h14---------10h12h14----------|
D|--------------------------14-|------------------------------------|
A|-----------------------------|------------------------------------|
E|-----------------------------|------------------------------------|

Do Refrain and Chorus

[Instrumental II]

V[V
e|-------------------12--------|-----------------10------------------|
B|----------12h13-------10-----|----------12h13-----13-12-10---------|
G|-10h12h14----------------12--|-10h12h14--------------------12-10-9-|
D|-----------------------------|-------------------------------------|
A|-----------------------------|-------------------------------------|
E|-----------------------------|-------------------------------------|

[Bridge]
[02:37]
e|------------------------------|------------------------------|
B|--5-5--5-5---5-5-5-5--5-5-5-5-|--5-5--5-5---5-5-5-5--5-5-5-5-|
G|--4-5--4-5---4-5-4-5--4-5-4-5-|--4-5--4-5---4-5-4-5--4-5-4-5-|
D|--x-x--x-x---3-3-3-3--3-3-3-3-|--x-x--x-x---3-3-3-3--3-3-3-3-|
A|--3-3--x-x--------------------|--3-3--x-x--------------------|
E|-------5-5--------------------|-------5-5--------------------|

e|-------8-7--------5---------5------|---------8-7--------5---------5---------|
B|-----5-----8-5--8----5-8--8---5----|-------5-----8-5--8----5-8--8---5-------|
G|-5-7----------------------------7--|---5-7----------------------------7-----|
D|-----------------------------------|-----------------------------------------|
A|-----------------------------------|----------------------------------------|
E|-----------------------------------|----------------------------------------|


Last Chorus

Right Speaker Guitar
e|--12-12---12-12---7-7------10-|-12-12---12-12--12-------------------------|
B|--12-12---13-13---8-8---10-10-|-12-12---13-13--12----------13-12----------|
G|--12-12---x--x----9-9---10-10-|-12-12---x--x---12-12p10h12p------12-12-10-|
D|--10-10---x--x----9-9---10-10-|-10-10---x--x------------------------------|
A|----------12-12---7-7---8--8--|---------12-12-----------------------------|
E|------------------------------|-------------------------------------------|

Left Speaker Guitar
e|----------------------7-7------10-|--------------------/12-10--10-8-10-8--/12-10--10-8-10-8--|
B|----------------------8-8---10-10-|----------------------------------------------------------|
G|-------5---------5----9-9---10-10-|------5---------5-----------------------------------------|
D|-----5---5-----5---5--9-9---10-10-|----5---5-----5---5---------------------------------------|
A|---3------------------7-7---8--8--|--3-------------------------------------------------------|
E|-----------5-5--------------------|----------5-5---------------------------------------------|

Right Speaker Guitar
e|--12-12---12-12---7-7------10-|-12-12---12-12--12-12----------------------|
B|--12-12---13-13---8-8---10-10-|-12-12---13-13--12-12-13-12----------------|
G|--12-12---x--x----9-9---10-10-|-12-12---x--x---12-12------14-12-14-12-----|
D|--10-10---x--x----9-9---10-10-|-10-10---x--x------------------------------|
A|----------12-12---7-7---8--8--|---------12-12-----------------------------|
E|------------------------------|-------------------------------------------|

Left Speaker Guitar
e|----------------------7-7------10-|--------------------/12-10--10-8-10-8--/12-10--10-8-10-8--|
B|----------------------8-8---10-10-|----------------------------------------------------------|
G|-------5---------5----9-9---10-10-|------5---------5-----------------------------------------|
D|-----5---5-----5---5--9-9---10-10-|----5---5-----5---5---------------------------------------|
A|---3------------------7-7---8--8--|--3-------------------------------------------------------|
E|-----------5-5--------------------|----------5-5---------------------------------------------|


[Outro]
e|------7-------7--------------|--------------------------------|
B|--10-10---10-10---5-5---5-5--|--10-10/---10-10/---5-5---5555--|
G|---9--9----9--9---5-4---4-4--|---9--9/----9--9/---5-4---4444--|
D|--10-10---10-10---3-3---5-5--|--10-10/---10-10/---3-3---5555--|
A|-----------------------------|-----10/------10/---------------|
E|-----------------------------|--------------------------------|            
Submit corrections


        Caught In The Middle  lessons Hard to play? Try these video lessons and learn fast Caught In The Middle  lessons
        
↑ Back to top | Tablatures and chords for acoustic guitar and electric guitar, ukulele, drums are parodies/interpretations of the original songs. You may use it for private study, scholarship, research or language learning purposes only