» » »

Paramore - Caught In The Middle Tabs

Artists:  A B C D E F G H I J K L M N O P Q R S T U V W X Y Z # 

Caught In The Middle Tabs

(ver. 1) Click to play this song!
Paramore
 Rating:
4.3/5 (9 votes)

 Caught In The Middle  lessons Tabs too difficult? Try these video lessons and learn fast
 
                [Intro]
e|-5---7--------5---7--------8---5--------5---0-|
B|-5---5--------5---5--------5---5--------5---5-|
G|-5---5--------5---5--------5---5--------5---5-|
D|----------------------------------------------|
A|----------------------------------------------|
E|----------------------------------------------|

e|-5---7--------5---7--------8---7--------5---0-|
B|-5---5--------5---5--------5---5--------5---5-|
G|-5---5--------5---5--------5---5--------5---5-|
D|----------------------------------------------|
A|----------------------------------------------|
E|----------------------------------------------|

[Verse]
e|-5---7--------5---7--------8---5--------5---0-|
B|-5---5--------5---5--------5---5--------5---5-|
G|-5---5--------5---5--------5---5--------5---5-|
D|----------------------------------------------|
A|----------------------------------------------|
E|----------------------------------------------|

e|-5---7--------5---3--------8---7--------5---0----7-7-7-|
B|-5---5--------5---5--------5---5--------5---5----5-5-5-|
G|-5---5--------5---5--------5---5--------5---5----5-5-5-|
D|-------------------------------------------------------|
A|-------------------------------------------------------|
E|-------------------------------------------------------|

e|-5---7--------5---7--------8---7--------5---0-|
B|-5---5--------5---5--------5---5--------5---5-|
G|-5---5--------5---5--------5---5--------5---5-|
D|----------------------------------------------|
A|----------------------------------------------|
E|----------------------------------------------|

e|-5---7--------5---7p5-5-5-----5---0--------5---0-|
B|-5---5--------5---5---5-5-----5---5--------5---5-|
G|-5---5--------5---5---5-5-----5---5--------5---5-|
D|-------------------------------------------------|
A|-------------------------------------------------|
E|-------------------------------------------------|

[Pre-chorus]
e|-------------------------------------------------|
B|-10---5--------10---10--------8---5--------8---8-|
G|-10---5--------10---10--------9---5--------9---9-|
D|-10---5--------10---10--------9---5--------9---9-|
A|-------------------------------------------------|
E|-------------------------------------------------|

e|-------------------------------------------------|
B|-10---5--------10---10--------13--12------12--12-|
G|-10---5--------10---10--------12--12------12--12-|
D|-10---5--------10---10--------12--12------12--12-|
A|-------------------------------------------------|
E|-------------------------------------------------|

[Chorus]
             C                  Am                Em                 F
e|--8--8--8--8--8----8--|--5-5-5-5-5---5-|--7-7-7-7-7---7-|--8--8--8--8--8----8--|
B|--8--8--8--8--8----8--|--5-5-5-5-5---5-|--8-8-8-8-8---8-|--10-10-10-10-10---10-|
G|--9--9--9--9--9----9--|--5-5-5-5-5---5-|--9-9-9-9-9---9-|--10-10-10-10-10---10-|
D|--10-10-10-10-10---10-|--7-7-7-7-7---7-|--9-9-9-9-9---9-|--10-10-10-10-10---10-|
A|--10-10-10-10-10---10-|--7-7-7-7-7---7-|--7-7-7-7-7---7-|--8--8--8--8--8----8--|
E|--8--8--8--8--8----8--|--5-5-5-5-5---5-|--7-7-7-7-7---7-|--8--8--8--8--8----8--|

             C                  Am                Em            C    B     G    F
e|--8--8--8--8--8----8--|--5-5-5-5-5---5-|--7-7-7-----------|----------------------|
B|--8--8--8--8--8----8--|--5-5-5-5-5---5-|--8-8-8---8----8--|--13-13-12------------|
G|--9--9--9--9--9----9--|--5-5-5-5-5---5-|--9-9-------10----|--12-12-12---12-12-10-|
D|--10-10-10-10-10---10-|--7-7-7-7-7---7-|--9-9-------------|-------------12-12-10-|
A|--10-10-10-10-10---10-|--7-7-7-7-7---7-|--7-7-------------|----------------------|
E|--8--8--8--8--8----8--|--5-5-5-5-5---5-|--7-7-------------|----------------------|

             C                  Am                Em           G     F
e|--8--8--8--8--8----8--|--5-5-5-5-5---5-|--X---7-7-7---7\|--3-3-3---1-|
B|--8--8--8--8--8----8--|--5-5-5-5-5---5-|--X---8-8-8---8\|--3-3-3---1-|
G|--9--9--9--9--9----9--|--5-5-5-5-5---5-|--X---9-9-9---9\|--4-4-4---2-|
D|--10-10-10-10-10---10-|--7-7-7-7-7---7-|--X---9-9-9---9\|--5-5-5---3-|
A|--10-10-10-10-10---10-|--7-7-7-7-7---7-|--X---7-7-7---7\|--5-5-5---3-|
E|--8--8--8--8--8----8--|--5-5-5-5-5---5-|--X---7-7-7---7\|--3-3-3---1-|

             C                  Am                Em           C   B   
e|--8--8--8--8--8----8--|--5-5-5-5-5---5-|--7-7-7-7-7---7-|--------------------------|
B|--8--8--8--8--8----8--|--5-5-5-5-5---5-|--8-8-8-8-8---8-|--13-13-12----------------|
G|--9--9--9--9--9----9--|--5-5-5-5-5---5-|--9-9-9-9-9---9-|--12-12-12----14-12-14-12-|
D|--10-10-10-10-10---10-|--7-7-7-7-7---7-|--9-9-9-9-9---9-|--------------14-12-14-12-|
A|--10-10-10-10-10---10-|--7-7-7-7-7---7-|--7-7-7-7-7---7-|--------------------------|
E|--8--8--8--8--8----8--|--5-5-5-5-5---5-|--7-7-7-7-7---7-|--------------------------|
                                                                      PM------------|      

[Pre-verse]
e|-5---7--------5---7--------8---5--------5---0---5-5-5-|
B|-5---5--------5---5--------5---5--------5---5---5-5-5-|
G|-5---5--------5---5--------5---5--------5---5---5-5-5-|
D|------------------------------------------------------|
A|------------------------------------------------------|
E|------------------------------------------------------|

e|-5---7--------5---7--------8---5--------5---0---------|
B|-5---5--------5---5--------5---5--------5---5/--------|
G|-5---5--------5---5--------5---5--------5---5/--------|
D|------------------------------------------------------|
A|------------------------------------------------------|
E|------------------------------------------------------|
 
[Verse]
e|-5---7--------5---7--------5---0--------5---0-|
B|-5---5--------5---5--------5---5--------5---5-|
G|-5---5--------5---5--------5---5--------5---5-|
D|----------------------------------------------|
A|----------------------------------------------|
E|----------------------------------------------|

e|--------------12-------------------|---------------12---------------------|
B|---------12h13-------12(12)--------|----------12h13-------12(12)----------|
G|--------------------------12-12----|----------------------------12-12-----|
D|-10h12/14----------------------14--|--10h12/14-----------------------10\--|
A|-----------------------------------|--------------------------------------|
E|-----------------------------------|--------------------------------------|

e|-5---7--(5---5)--5---7--(5---5)--8---0--(5---5)--5---0--(0-0-0)--|
B|-5---5--(5---5)--5---5--(5---5)--5---5--(5---5)--5---5--(5-5-5)--|
G|-5---5-----------5---5-----------5---5-----------5---5-----------|
D|-----------------------------------------------------------------|
A|-----------------------------------------------------------------|
E|-----------------------------------------------------------------|

e|--------------12-------------------|---------------12------------------12-|
B|---------12h13-------12(12)--------|----------12h13---------------12h13---|
G|--------------------------12-12----|--------------------------------------|
D|-10h12/14----------------------14--|--10h12/14------------10h12/14--------|
A|-----------------------------------|--------------------------------------|
E|-----------------------------------|--------------------------------------|

[Pre-chorus]
              F                           Em
e|--8----8---------8----8----|-X-7---7--------7---7-----------|
B|--10---10--------10---10---|-X-8---8--------8---8-----------|
G|--10---10--------10---10---|-X-9---9--------9---9-----7-7/9-|
D|--10---10--------10---10---|-X-9---9--------9---9-----------|
A|--8----8---------8----8----|-X-7---7--------7---7-----------|
E|--8----8---------8----8----|-X-7---7--------7---7-----------|

              F                           G
e|--8----8---------8----8----|-X-3---3--------3---3--------|
B|--10---10--------10---10---|-X-3---3--------3---3--------|
G|--10---10--------10---10---|-X-4---4--------4---4--------|
D|--10---10--------10---10---|-X-5---5--------5---5--------|
A|--8----8---------8----8----|-X-5---5--------5---5--------|
E|--8----8---------8----8----|-X-3---3--------3---3--------|

[Chorus]
             C                  Am                Em                 F
e|--8--8--8--8--8----8--|--5-5-5-5-5---5-|--7-7-7-7-7---7-|--8--8--8--8--8----8--|
B|--8--8--8--8--8----8--|--5-5-5-5-5---5-|--8-8-8-8-8---8-|--10-10-10-10-10---10-|
G|--9--9--9--9--9----9--|--5-5-5-5-5---5-|--9-9-9-9-9---9-|--10-10-10-10-10---10-|
D|--10-10-10-10-10---10-|--7-7-7-7-7---7-|--9-9-9-9-9---9-|--10-10-10-10-10---10-|
A|--10-10-10-10-10---10-|--7-7-7-7-7---7-|--7-7-7-7-7---7-|--8--8--8--8--8----8--|
E|--8--8--8--8--8----8--|--5-5-5-5-5---5-|--7-7-7-7-7---7-|--8--8--8--8--8----8--|

             C                  Am                Em            C    B     G    F
e|--8--8--8--8--8----8--|--5-5-5-5-5---5-|--7-7-7-----------|----------------------|
B|--8--8--8--8--8----8--|--5-5-5-5-5---5-|--8-8-8---8----8--|--13-13-12------------|
G|--9--9--9--9--9----9--|--5-5-5-5-5---5-|--9-9-------10----|--12-12-12---12-12-10-|
D|--10-10-10-10-10---10-|--7-7-7-7-7---7-|--9-9-------------|-------------12-12-10-|
A|--10-10-10-10-10---10-|--7-7-7-7-7---7-|--7-7-------------|----------------------|
E|--8--8--8--8--8----8--|--5-5-5-5-5---5-|--7-7-------------|----------------------|

             C                  Am                Em           G     F
e|--8--8--8--8--8----8--|--5-5-5-5-5---5-|--X---7-7-7---7\|--3-3-3---1-|
B|--8--8--8--8--8----8--|--5-5-5-5-5---5-|--X---8-8-8---8\|--3-3-3---1-|
G|--9--9--9--9--9----9--|--5-5-5-5-5---5-|--X---9-9-9---9\|--4-4-4---2-|
D|--10-10-10-10-10---10-|--7-7-7-7-7---7-|--X---9-9-9---9\|--5-5-5---3-|
A|--10-10-10-10-10---10-|--7-7-7-7-7---7-|--X---7-7-7---7\|--5-5-5---3-|
E|--8--8--8--8--8----8--|--5-5-5-5-5---5-|--X---7-7-7---7\|--3-3-3---1-|

             C                  Am                Em           C   B   
e|--8--8--8--8--8----8--|--5-5-5-5-5---5-|--7-7-7-7-7---7-|--------------------------|
B|--8--8--8--8--8----8--|--5-5-5-5-5---5-|--8-8-8-8-8---8-|--13-13-12----------------|
G|--9--9--9--9--9----9--|--5-5-5-5-5---5-|--9-9-9-9-9---9-|--12-12-12----14-12-14-12-|
D|--10-10-10-10-10---10-|--7-7-7-7-7---7-|--9-9-9-9-9---9-|--------------14-12-14-12-|
A|--10-10-10-10-10---10-|--7-7-7-7-7---7-|--7-7-7-7-7---7-|--------------------------|
E|--8--8--8--8--8----8--|--5-5-5-5-5---5-|--7-7-7-7-7---7-|--------------------------|
                                                                      PM------------|  

[Bridge]
e|-------------------------|--12---------------------|
B|----------12h13----------|-------------------------|
G|-------------------------|-------14-14-12----------|
D|--10h12/14---------------|-------------------------|
A|-------------------------|-------------------------|
E|-------------------------|-------------------------|

e|-------------------------|-------------------------------------|
B|----------12h13----------|--15---13-13-12----------------------|
G|-------------------------|-----------------14--12--------------| last note
D|--10h12/14---------------|-------------------------15--14------| is optional
A|-------------------------|--------------------------------(15)-| bass note
E|-------------------------|-------------------------------------|

   "No, I don't need no help...     I can sabotage me by my...

                  C                           Am                      
e|--8-----------------------------|-5----------------------|  --|  
B|--8-----------------------------|-5----------------------|    |  Optional  
G|--9-----------------------------|-5----------------------|    |  to strum
D|--10----------------------------|-7----------------------|    |  lightly
A|--10----------------------------|-7----------------------|    |  while Hayley
E|--8-----------------------------|-5----------------------|    |  sings this part
                                                                |
  ...self.   I don't need...   ...sabotage me by my-self."      | (x4)
                                                                |
                  F                                             |
e|-8-------------------------------------------------------|    |  or play twice
B|-10------------------------------------------------------|    |  then play
G|-10------------------------------------------------------|    |  along to
D|-10------------------------------------------------------|    |  Hayley's
A|-8-------------------------------------------------------|    |  vocals
E|-8-------------------------------------------------------|  --|  below...
  
          ** or play Hayley's vocals melody **             
e|--g7/8--8--7------------------------------------------------|         --|
B|--------------10----------g7/8--10--8--10p8---10--8--10-----|           |
G|------------------9--------------------------------------9--|           |
D|------------------------------------------------------------|           |
A|------------------------------------------------------------|           |
E|------------------------------------------------------------|           |
                                                                          | (x2)
e|--g7/8--8--7---------------------------------------------------|        |
B|--------------10----------g9/10--10--10--10-8---8--------------|        |
G|------------------9---------------------------------10--10--9--|        |
D|---------------------------------------------------------------|        |
A|---------------------------------------------------------------|        |
E|---------------------------------------------------------------|      --|

[Chorus]
             C                  Am                Em                 F
e|--8--8--8--8--8----8--|--5-5-5-5-5---5-|--7-7-7-7-7---7-|--8--8--8--8--8----8--|
B|--8--8--8--8--8----8--|--5-5-5-5-5---5-|--8-8-8-8-8---8-|--10-10-10-10-10---10-|
G|--9--9--9--9--9----9--|--5-5-5-5-5---5-|--9-9-9-9-9---9-|--10-10-10-10-10---10-|
D|--10-10-10-10-10---10-|--7-7-7-7-7---7-|--9-9-9-9-9---9-|--10-10-10-10-10---10-|
A|--10-10-10-10-10---10-|--7-7-7-7-7---7-|--7-7-7-7-7---7-|--8--8--8--8--8----8--|
E|--8--8--8--8--8----8--|--5-5-5-5-5---5-|--7-7-7-7-7---7-|--8--8--8--8--8----8--|

             C                  Am                Em            C    B     G    F
e|--8--8--8--8--8----8--|--5-5-5-5-5---5-|--7-7-7-----------|----------------------|
B|--8--8--8--8--8----8--|--5-5-5-5-5---5-|--8-8-8---8----8--|--13-13-12------------|
G|--9--9--9--9--9----9--|--5-5-5-5-5---5-|--9-9-------10----|--12-12-12---12-12-10-|
D|--10-10-10-10-10---10-|--7-7-7-7-7---7-|--9-9-------------|-------------12-12-10-|
A|--10-10-10-10-10---10-|--7-7-7-7-7---7-|--7-7-------------|----------------------|
E|--8--8--8--8--8----8--|--5-5-5-5-5---5-|--7-7-------------|----------------------|

             C                  Am                Em           G     F
e|--8--8--8--8--8----8--|--5-5-5-5-5---5-|--X---7-7-7---7\|--3-3-3---1-|
B|--8--8--8--8--8----8--|--5-5-5-5-5---5-|--X---8-8-8---8\|--3-3-3---1-|
G|--9--9--9--9--9----9--|--5-5-5-5-5---5-|--X---9-9-9---9\|--4-4-4---2-|
D|--10-10-10-10-10---10-|--7-7-7-7-7---7-|--X---9-9-9---9\|--5-5-5---3-|
A|--10-10-10-10-10---10-|--7-7-7-7-7---7-|--X---7-7-7---7\|--5-5-5---3-|
E|--8--8--8--8--8----8--|--5-5-5-5-5---5-|--X---7-7-7---7\|--3-3-3---1-|

             C                  Am                Em           C   B   
e|--8--8--8--8--8----8--|--5-5-5-5-5---5-|--7-7-7-7-7---7-|--------------------------|
B|--8--8--8--8--8----8--|--5-5-5-5-5---5-|--8-8-8-8-8---8-|--13-13-12----------------|
G|--9--9--9--9--9----9--|--5-5-5-5-5---5-|--9-9-9-9-9---9-|--12-12-12----14-12-14-12-|
D|--10-10-10-10-10---10-|--7-7-7-7-7---7-|--9-9-9-9-9---9-|--------------14-12-14-12-|
A|--10-10-10-10-10---10-|--7-7-7-7-7---7-|--7-7-7-7-7---7-|--------------------------|
E|--8--8--8--8--8----8--|--5-5-5-5-5---5-|--7-7-7-7-7---7-|--------------------------|
                                                                      PM------------|  

[Outro]
e|-5---7--------5---7--------3---0--------3---0-|
B|-5---5--------5---5--------5---5--------5---5-|
G|-5---5--------5---5--------5---5--------5---5-|
D|----------------------------------------------|
A|----------------------------------------------|
E|----------------------------------------------|

e|-5---7\-------5---7\-------5---0--------0-0-0-|
B|-5---5\-------5---5\-------5---5--------5-5-5-|
G|-5---5\-------5---5\-------5---5--------5-5-5-|
D|----------------------------------------------|
A|----------------------------------------------|
E|----------------------------------------------|            
Submit corrections


        Caught In The Middle  lessons Hard to play? Try these video lessons and learn fast Caught In The Middle  lessons
        
↑ Back to top | Tablatures and chords for acoustic guitar and electric guitar, ukulele, drums are parodies/interpretations of the original songs. You may use it for private study, scholarship, research or language learning purposes only