Home » O » One Direction »

One Direction - Little Things Tabs

Artists:  A B C D E F G H I J K L M N O P Q R S T U V W X Y Z # 

Little Things Tabs

(ver. 3) Click to play this song!
One Direction
 Rating:
4/5 (4 votes)
                Hey! Didn't find any tabs for this(when I made it, anyway), so thought I could post it
here when I figured it out.
I know it's not perfect, but I did my best.
Capo on 5th fret, standard tuning.

PS:
- I would advice using the thumb on most of the low E-string notes.

- This is merely a tab for being able to play the song by yourself, as accurate as possible.
The original song contains two guitars, and therefore it will never be completely 
correct unless you have a friend to play with you.

Edit, 25.01.13: Wrote all the tabs over again to make corrections from how it was when I 
made it. I made this tab about a week after it was released(+/-), and have been playing 
the song ever since. Obviously, I've figured out easier or more accurate ways to play it.


Intro/1st and 2nd Verse:
E|--------2--------0-----------2--------0--------------2--------0-----------2--------0--|
B|--------3--------3-----------3--------3--------------3--------3-----------3--------3--|
G|-----2--------2-----2-----2--------2--------------2--------2-----2-----2--------2-----|
D|--0--------0-----------0--------0-----------------------------------------------------|
A|--------------------------------------------------------------------------------------|
E|-----------------------------------------0--2--3--------3-----------3--------3--------|

E|---------0-----0-------0-----0-------0---------------2-----0---|
B|---------3-----3-------3-----3-------3-------2-3-----3-----3---|
G|-------2-----2---2---2-----2---2---0---0-----2-----2-----2---2-|
D|-------------------------------------------2-----0-----0-------|
A|-----------------------------------------0---------------------|
E|-3-2-0-----0-------2-----2-------3-----------------------------|


1st chorus:
E|-------------------2-----0---------------------------------|
B|-----3-----3-------3-----3-------3-----3-------2-3p2-------|
G|-----0-----0---------------------0-----0-------------2---0-|
D|---------------------------------------------2---------2---|
A|---2-----2---2---2-----2---2---2-----2---2-0---------------|
E|-0-----0-------0-----0-------0-----0-----------------------|


1st chorus, ending:
(I'm in love with you...and all this little things)
E|------------------------------------|
B|-----3-----3---3--------------------|
G|-----0-----0---0--------2-----2---2-|
D|----------------------0-----0---0---|
A|---2-----2---2------0-----0---------|
E|-0-----0----------------------------|


Third and fourth verse(same as intro):
E|--------2--------0-----------2--------0--------------2--------0-----------2--------0--|
B|--------3--------3-----------3--------3--------------3--------3-----------3--------3--|
G|-----2--------2-----2-----2--------2--------------2--------2-----2-----2--------2-----|
D|--0--------0-----------0--------0-----------------------------------------------------|
A|--------------------------------------------------------------------------------------|
E|-----------------------------------------0--2--3--------3-----------3--------3--------|

E|---------0-----0-------0-----0-------0---------------2-----0---|
B|---------3-----3-------3-----3-------3-------2-3-----3-----3---|
G|-------2-----2---2---2-----2---2---0---0-----2-----2-----2---2-|
D|-------------------------------------------2-----0-----0-------|
A|-----------------------------------------0---------------------|
E|-3-2-0-----0-------2-----2-------3-----------------------------|


2nd chorus(same as the first):
E|-------------------2-----0---------------------------------|
B|-----3-----3-------3-----3-------3-----3-------2-3p2-------|
G|-----0-----0---------------------0-----0-------------2---0-|
D|---------------------------------------------2---------2---|
A|---2-----2---2---2-----2---2---2-----2---2-0---------------|
E|-0-----0-------0-----0-------0-----0-----------------------|


2nd chorus, ending(before bridge):
E|-----------------------------|
B|-----3-----3-------3-----3---|
G|-----0-----0-------0-----0---|
D|-----------------------------|
A|---2-----2---2---2-----2---2-|
E|-0-----0-------3-----3-------|


Bridge(1st part):
E|-----------------------------------------------------------|
B|-----3-----3-------3-----3-------3-----3-------2-3p2-------|
G|-----0-----0-------0-----0-------2-----2-------------2---0-|
D|---------------------------------------------2---------2---|
A|---2-----2---2---2-----2---2---0-----0---0-0---------------|
E|-0-----0-------3-----3-------2-----2-----------------------|


Bridge(2nd part) or chorus or quiet part or whatever:
Just gently strum where I've marked it:
(Strum) - And I've just let these little things(strum) slip out(strum) of my mouth(strum)
E|--------------|
B|--------------|
G|--0--0--2--2--|
D|--2--0--0--2--|
A|--2--2--0--0--|
E|--0--3--2-----|

Or you can play(I think this one sounds more accurate):
E|--------------|
B|--------------|
G|--0--0-----2--|
D|--2--0--4--2--|
A|--2--2--0--0--|
E|--0--3--2-----|


End the part above by lightly strumming on the last chord(A)(without the B-string), 
followed by:
E|-----------------------------|
B|-----3-----3-------3-----3---|
G|-----0-----0-------0-----0---|
D|-----------------------------|
A|---2-----2---2---2-----2---2-|
E|-0-----0-------0-----0-------|


And then continue right to the last chorus, which is similar to the first two:
E|-------------------2-----0---------------------------------|
B|-----3-----3-------3-----3-------3-----3-------2-3p2-------|
G|-----0-----0---------------------0-----0-------------2---0-|
D|---------------------------------------------2---------2---|
A|---2-----2---2---2-----2---2---2-----2---2-0---------------|
E|-0-----0-------0-----0-------0-----0-----------------------|


End of last chorus/song:
E|---------------0p2------2-|
B|-----3-----3---3--------3-|
G|-----0-----0------------2-|
D|------------------------0-|
A|---2-----2---2------------|
E|-0-----0------------------|
            
Submit corrections

↑ Back to top | Tablatures and chords for acoustic guitar and electric guitar, ukulele, drums are parodies/interpretations of the original songs. You may use it for private study, scholarship, research or language learning purposes only