Home » O » One Direction »

One Direction - Little Things Tabs

Artists:  A B C D E F G H I J K L M N O P Q R S T U V W X Y Z # 

Little Things Tabs

(ver. 4) Click to play this song!
One Direction
 Rating:
4.1/5 (31 vote)
                [Intro]
     D                     
e|-----2------0-----|-----2------0--|
B|---------------3--|---------------|
G|----2-----2-------|----2-----2----|
D|--0-----0---------|--0-----0------|
A|------------------|---------------|
E|------------------|---------------|
      D/F#      Dadd11/G                
e|------------2-----0----|------2-----0----|
B|-----3--------------3--|--------------3--|
G|----------0-----0------|----0-----0------|
D|-----------------------|-----------------|
A|-----------------------|-----------------|
E|--0--2---3----3--------|--3----3---------|
      Bm7             Asus4           G5      Asus4    
e|-----0-----0--------0-----0----|------0-------------|
B|-------------3--------------3--|--------3------2-3--|
G|----2----2--------2-----2------|----0--------2------|
D|-------------------------------|--------------------|
A|--2----2--------0-----0--------|-----------0--------|
E|-------------------------------|--3-----------------|

[Verse 1: Zayn & Liam]
Your hand fits in mine like it's made just for me
e|-----2------0-----|-----2------0--|
B|---------------3--|---------------|
G|----2-----2-------|----2-----2----|
D|--0-----0---------|--0-----0------|
A|------------------|---------------|
E|------------------|---------------|
But bear this mind it was meant to be
e|-----------2-----0----|------2-----0----|
B|-----3-------------3--|--------------3--|
G|---------0-----0------|----0-----0------|
D|----------------------|-----------------|
A|----------------------|-----------------|
E|--0--2--3----3--------|--3----3---------|

And I'm joining up the dots with the freckles on your cheeks
e|-----0-----0--------0-----0----|------0-------------|
B|-------------3--------------3--|--------3------2-3--|
G|----2----2--------2-----2------|----0--------2------|
D|-------------------------------|--------------------|
A|--2----2--------0-----0--------|-----------0--------|
E|-------------------------------|--3-----------------|
And it all makes sense to me
e|-----2------0-----|-----2------0-----|
B|---------------3--|---------------3--|
G|----2-----2-------|----2-----2-------|
D|--0-----0---------|--0-----0---------| 
A|------------------|------------------|
E|------------------|------------------|
I know you've never loved the crinkles by your eyes
e|-----2------0-----|-----2------0--|
B|---------------3--|---------------|
G|----2-----2-------|----2-----2----|
D|--0-----0---------|--0-----0------|
A|------------------|---------------|
E|------------------|---------------|
When you smile, you've never loved your stomach or your thighs
e|-----------2-----0----|------2-----0----|
B|-----3-------------3--|--------------3--|
G|---------0-----0------|----0-----0------|
D|----------------------|-----------------|
A|----------------------|-----------------|
E|--0--2--3----3--------|--3----3---------|
The dimples in your back at the bottom of your spine 
But I'll love them endlessly
e|-----0-----0--------0-----0----|------0-------------|-----2------0-----|
B|-------------3--------------3--|--------3------2-3--|---------------3--|
G|----2----2--------2-----2------|----0--------2------|----2-----2-------|
D|-------------------------------|--------------------|--0-----0---------|
A|--2----2--------0-----0--------|-----------0--------|------------------|
E|-------------------------------|--3-----------------|------------------|

[Chorus: Zayn]
I won't let these little things...
e|------0-----0----|------2-----0----|
B|--------------3--|--------------3--|
G|----0-----0------|----0-----0------|
D|-----------------|-----------------|
A|-----------------|-----------------|
E|--0-----0--------|--3----3---------|
slip out of my mouth
e|-----0-----0----|--------------------|
B|-------------3--|------2--3p2---2-3--|
G|----2----2------|----2--------2------|
D|----------------|--------------------|
A|--2----2--------|--0-----------------|
E|----------------|--------------------|
But if I do, it's you  
e|-----------------|------2-----0----|
B|------3-----3----|--------------3--|
G|----0-----0---0--|----0-----0------|
D|-----------------|-----------------| 
A|-----------------|-----------------|
E|--0-----0--------|--3----3---------|
oh it's you, they add up to 
e|-----0-----0----|--------------------|
B|-------------3--|------2--3p2---2-3--|
G|----2----2------|----2--------2------|
D|----------------|--------------------|
A|--2----2--------|--0-----------------|
E|----------------|--------------------|
I'm in love with you and  all these little things
e|-------------------0h2--|---------------------|
B|------3-----3------3----|---------------------|
G|----0-----0-----0-------|------2-----2-----2--|
D|------------------------|----0-----0-----0----|
A|------------------------|--0-----0-----0------|
E|--3-----3-----3---------|---------------------|

[Verse 2: Louis & Harry]
You can't go to bed without a cup of tea
     D
e|-----2------0-----|-----2------0--|
B|---------------3--|---------------|
G|----2-----2-------|----2-----2----|
D|--0-----0---------|--0-----0------|
A|------------------|---------------|
E|------------------|---------------|
Maybe that's the reason that you talk in your sleep
e|-----------2-----0----|------2-----0----|
B|-----3-------------3--|--------------3--|
G|---------0-----0------|----0-----0------|
D|----------------------|-----------------|
A|----------------------|-----------------|
E|--0--2--3----3--------|--3----3---------|
And all those conversations are the secrets that I keep
e|-----0-----0--------0-----0----|------0-------------|
B|-------------3--------------3--|--------3------2-3--|
G|----2----2--------2-----2------|----0--------2------|
D|-------------------------------|--------------------|
A|--2----2--------0-----0--------|-----------0--------|
E|-------------------------------|--3-----------------|
Though it makes no sense to me
e|-----2------0-----|
B|---------------3--|
G|----2-----2-------|
D|--0-----0---------|
A|------------------|
E|------------------| 
I know you've never loved the sound of your voice on tape
e|-----2------0-----|-----2------0--|
B|---------------3--|---------------|
G|----2-----2-------|----2-----2----|
D|--0-----0---------|--0-----0------|
A|------------------|---------------|
E|------------------|---------------|
You never want to know how much you weigh
e|-----------2-----0----|------2-----0----|
B|-----3-------------3--|--------------3--|
G|---------0-----0------|----0-----0------|
D|----------------------|-----------------|
A|----------------------|-----------------|
E|--0--2--3----3--------|--3----3---------|
You still have to squeeze into your jeans
e|-----0-----0--------0-----0----|------0-------------|
B|-------------3--------------3--|--------3------2-3--|
G|----2----2--------2-----2------|----0--------2------|
D|-------------------------------|--------------------|
A|--2----2--------0-----0--------|-----------0--------|
E|-------------------------------|--3-----------------|
But you're perfect to me
e|-----2------0-----|
B|---------------3--|
G|----2-----2-------|
D|--0-----0---------|
A|------------------|
E|------------------|

[Chorus: Harry]
I won't let these little things...
e|------0-----0----|------2-----0----|
B|--------------3--|--------------3--|
G|----0-----0------|----0-----0------|
D|-----------------|-----------------|
A|-----------------|-----------------|
E|--0-----0--------|--3----3---------|
slip out of my mouth
e|-----0-----0----|--------------------|
B|-------------3--|------2--3p2---2-3--|
G|----2----2------|----2--------2------|
D|----------------|--------------------|
A|--2----2--------|--0-----------------|
E|----------------|--------------------|
But if its true , it's you
e|-----------------|------2-----0----|
B|------3-----3----|--------------3--|
G|----0-----0---0--|----0-----0------|
D|-----------------|-----------------| 
A|-----------------|-----------------|
E|--0-----0--------|--3----3---------|
it's you, they add up to 
e|-----0-----0----|--------------------|
B|-------------3--|------2--3p2---2-3--|
G|----2----2------|----2--------2------|
D|----------------|--------------------|
A|--2----2--------|--0-----------------|
E|----------------|--------------------|
I'm in love with you and  all these little things
e|-------------------0h2--|---------------------|
B|------3-----3------3----|---------------------|
G|----0-----0-----0-------|------2-----2-----2--|
D|------------------------|----0-----0-----0----|
A|------------------------|--0-----0-----0------|
E|--3-----3-----3---------|---------------------|

[Bridge: Niall]
You never love yourself half as...       much as I love you
e|-----------------|-----------------|-----------------|----------------|
B|------3-----3----|------3-----3----|------3-----3----|-----3p2---2-3--|
G|----0-----0---0--|----0-----0---0--|----2-----2---2--|----2----2------|
D|-----------------|-----------------|--0-----0--------|----------------|
A|-----------------|-----------------|-----------------|--0-------------|
E|--0-----0--------|--3-----3--------|-----------------|----------------|
You'll never treat yourself right...       darling but I want you to
e|-----------------|-----------------|-----------------|----------------|
B|------3-----3----|------3-----3----|------3-----3----|-----3p2---2-3--|
G|----0-----0---0--|----0-----0---0--|----2-----2---2--|----2----2------|
D|-----------------|-----------------|--0-----0--------|----------------|
A|-----------------|-----------------|-----------------|--0-------------|
E|--0-----0--------|--3-----3--------|-----------------|----------------|
If I let you know...                      I'm here for you
e|-----------------|-----------------|-----------------|----------------|
B|------3-----3----|------3-----3----|------3-----3----|-----3p2---2-3--|
G|----0-----0---0--|----0-----0---0--|----2-----2---2--|----2----2------|
D|-----------------|-----------------|--0-----0--------|----------------|
A|-----------------|-----------------|-----------------|--0-------------|
E|--0-----0--------|--3-----3--------|-----------------|----------------|
Maybe you'll love yourself like I...           love you oh
e|-----------------|-----------------|---------------|----------------|
B|------3-----3----|------3-----3----|------3-----3--|-----3p2---2-3--|
G|----0-----0---0--|----0-----0---0--|----2-----2----|----2----2------|
D|-----------------|-----------------|--0-----0------|----------------|
A|-----------------|-----------------|---------------|--0-------------|
E|--0-----0--------|--3-----3--------|---------------|----------------|

[Chorus: Harry]
And I've just let these little things slip out of my mouth
e|------0-----0----|------2-----0----|
B|--------------3--|--------------3--|
G|----0-----0------|----0-----0------|
D|-----------------|-----------------|
A|-----------------|-----------------|
E|--0-----0--------|--3----3---------|

'Cause it's you, oh it's you, it's you they add up to
e|-----0-----0----|--------------------|
B|-------------3--|------2--3p2---2-3--|
G|----2----2------|----2--------2------|
D|----------------|--------------------|
A|--2----2--------|--0-----------------|
E|----------------|--------------------|
And I'm in love with you and all these little things   
e|-------------------0h2--|---------------------|
B|------3-----3------3----|---------------------|
G|----0-----0-----0-------|------2-----2-----2--|
D|------------------------|----0-----0-----0----|
A|------------------------|--0-----0-----0------|
E|--3-----3-----3---------|---------------------|

[Chorus: Everyone]
I won't let these little things Slip out of my mouth
e|------0-----0----|------2-----0----|
B|--------------3--|--------------3--|
G|----0-----0------|----0-----0------|
D|-----------------|-----------------|
A|-----------------|-----------------|
E|--0-----0--------|--3----3---------|

But if it's true It's you It's you They add up to
e|-----0-----0----|--------------------|
B|-------------3--|------2--3p2---2-3--|
G|----2----2------|----2--------2------|
D|----------------|--------------------|
A|--2----2--------|--0-----------------|
E|----------------|--------------------|
I'm in love with you And all your little things  
e|-------------------0h2--|---------------------|
B|------3-----3------3----|---------------------|
G|----0-----0-----0-------|------2-----2-----2--|
D|------------------------|----0-----0-----0----|
A|------------------------|--0-----0-----0------|
E|--3-----3-----3---------|---------------------|            
Submit corrections

↑ Back to top | Tablatures and chords for acoustic guitar and electric guitar, ukulele, drums are parodies/interpretations of the original songs. You may use it for private study, scholarship, research or language learning purposes only