Home » O » One Direction »

One Direction - Drag Me Down Bass

Artists:  A B C D E F G H I J K L M N O P Q R S T U V W X Y Z # 

Drag Me Down Bass

(ver. 1) Click to play this song!
One Direction
Tuning:Drop D
Verse 1
G|------------------------------------|
D|------------------------------------|
A|------------------------------------|X4
D|-10-10--5-6-6--6-8-8--2-3-3--3-3-5--|
Pre-Chorus 1
G|---------------------------------------------------------------------------|
D|---------------------------------------------------------------------------|
A|---------------------------------------------------------------------------|
D|-10---6---8---3---10---6---8---3---10-10-10-10-10-10-10-10-6-6-6-6-6-6-6-6-|
                                     
G|---------------------------------------------------------------------------|
D|---------------------------------------------------------------------------|
A|---------------------------------------------------------------------------|
D|-8-8-8-8-8-8-8-8-3-3-3-3-3-3-3-3-10-10-10-10-10-10-10-10-6-6-6-6-6-6-6-6-8-|
  
G|---------------------------------------------------------------------------|
D|---------------------------------------------------------------------------|
A|---------------------------------------------------------------------------|
D|-8-8-8-8-8-8-8\------------------------------------------------------------|
Chorus
G|------------------------------------|
D|------------------------------------|
A|------------------------------------|X2
D|-10-10--5-6-6--6-8-8--2-3-3--3-3-5--|
Verse 2
G|------------------------------------|
D|------------------------------------|
A|------------------------------------|X4
D|-10-10--5-6-6--6-8-8--2-3-3--3-3-5--|
Pre-Chorus 2
G|---------------------------------------------------------------------------|
D|---------------------------------------------------------------------------|
A|---------------------------------------------------------------------------|
D|-10-10-10-10-10-10-10-10-6-6-6-6-6-6-6-6-8-8-8-8-8-8-8-8-3-3-3-3-3-3-3-3-10|
   
G|---------------------------------------------------------------------------|
D|---------------------------------------------------------------------------|
A|---------------------------------------------------------------------------|
D|-10-10-10-10-10-10-10-6-6-6-6-6-6-6-6-8-8-8-8-8-8-8-8\---------------------|            
Submit corrections

↑ Back to top | Tablatures and chords for acoustic guitar and electric guitar, ukulele, drums are parodies/interpretations of the original songs. You may use it for private study, scholarship, research or language learning purposes only