Home » O » One Direction »

One Direction - Little Things Bass

Artists:  A B C D E F G H I J K L M N O P Q R S T U V W X Y Z # 

Little Things Bass

(ver. 1) Click to play this song!
One Direction
                [Intro]
G|--------------------------------|
D|--------------------------------|
A|-------2-3---3-5-7--5---3-5-----| x1
E|-3---3----------------------3---|
 
 
[Verse 1]
G|--------------------------------|
D|--------------------------------|
A|-------2-3---3-5-7--5---3-5-----| x2
E|-3---3----------------------3---|
 
 
[Chorus 1]
G|---------------------------|
D|---------------------------|
A|---3-7-5-----3-7-5-3-------| x1
E|-5---------5-----------3---|
 
 
[Verse 2]
G|--------------------------------|
D|--------------------------------|
A|-------2-3---3-5-7--5---3-5-----| x2
E|-3---3----------------------3---|
 
 
[Chorus 2]
G|-----------------------|
D|-----------------------|
A|---3-7-5-----3-7-5-3---| x1
E|-5---------5-----------|
 
 
[Bridge]
G|------------------------------------------------------------------------------------|
D|-----------------------------------------------------5--5/7-------------------------|
A|-3------3--3------5--5/7------3-----5--5/7------3--3--------5--5-7------3--3----5---| x1
E|---5--3------3--3--------5--3----3---------5--3--------------------3--3------3------|
 
 
[Chorus 3]
G|---------------------------|
D|---------------------------|
A|---3-7-5-----3-7-5-3---3---| x1
E|-5---------5---------------|
 
 
[Chorus 3 continued]
G|-----------------------------------------------|
D|-----------------------------------------------|
A|-3------3--5-7--5--5-7------3--3/7--5--3-------| x1
E|---5--3----------------5--3---------------3----|
 
            
Submit corrections

↑ Back to top | Tablatures and chords for acoustic guitar and electric guitar, ukulele, drums are parodies/interpretations of the original songs. You may use it for private study, scholarship, research or language learning purposes only