» » »

Notorious Big - Juicy Bass

Artists:  A B C D E F G H I J K L M N O P Q R S T U V W X Y Z # 

Juicy Bass

(ver. 3) Click to play this song!
Notorious Big
 Rating:
4/5 (4 votes)

 Juicy lessons Tabs too difficult? Try these video lessons and learn fast
 
                                   T
G|------------------------------------|
D|------------------------------------|
A|-------2--4------------2--x-4---2---|
E|-0--4-------0----0h2h4--------------|
             P
G|------------------------------------|
D|-----------4------------------------|
A|-0-0-------------0-0-------2--------|
E|-----x-0-2-----------x-0-x----------|

I like to "thump" my way through it (excluding the popped F#) to give this groove that 
authentic funk feel like in the song.
            
Submit corrections


        Juicy lessons Hard to play? Try these video lessons and learn fast Juicy lessons
        
↑ Back to top | Tablatures and chords for acoustic guitar and electric guitar, ukulele, drums are parodies/interpretations of the original songs. You may use it for private study, scholarship, research or language learning purposes only